Oops, an error
Loading. Please wait.

Joker And The Thief Bass Tab

version 2
version 2

Whole song

56,458 views 171 this week
8 commentsread comments
1 2 3 4 5
excellent!
x 34
add to favorites
launch autoscroll
font size
0
reset
guitar tuner
Tab Pro tools
  • play this tab
  • loop segment
  • change instrument
  • show fretboard
  • metronome
Autoscroll
slow
fast
+/-
esc
set tempo
stop
Contributor
Intro :20
G --------------------------------|
D ---------------------3~---5~----|
A -5~---3~---5~---3~------------5.|
E --------------------------------|

Pre Verse :49
G ----------------|
D -3.---5.--------|
A ----------------|
E ----------------|

Verse :52                   x5 
G ----------------------------|-----------------------------------|
D .--------------------------.|-3--3--3--3--5--5-3-5-3-5-3--------|
A .5--5--5--5--5--5-3-5-3-5-3.|-----------------------------------|
E ----------------------------|-----------------------------------|
                            x5
G ----------------------------|-------------------|
D .--------------------------.|-3.----5.----------|
A .5--5--5--5--5--5-3-5-3-5-3.|-------------------|
E ----------------------------|-------------------|

Chorus 1:29                               x3
G ------------------------------------------|---------------------|
D .----------------------------------------.|-3333333333333333333-|
A .5555555555555555555333333333333333333333.|---------------------|
E ------------------------------------------|---------------------|

G ----------------|
D -5555555555555--|
A --------------5.|
E ----------------|

Verse 2 1:53                              x3
G -------------|----------------------------|----------------------|
D -------------|.--------------------------.|-3.----5.-------------|
A -(2mm. rest)-|.5--5--5--5--5--5-3-5-3-5-3.|----------------------|
E -------------|----------------------------|----------------------|
                            x5
G ----------------------------|-------------------|
D .--------------------------.|-3.----5.----------|
A .5--5--5--5--5--5-3-5-3-5-3.|-------------------|
E ----------------------------|-------------------|

Chorus 2:36

Bridge 3:00
G ----------------------------------------------------------------|
D ----7-5-4-5-4-------7-5-4-5-4-------7-5-4-5-4-------7-5-4-5-4-5-|
A -5~-----------5-3~------------7-5~------------5-3~--------------|
E ----------------------------------------------------------------|

G ----------------------------------------------------------------|
D -7~---7/9~-9b-------------7-5-4-5-4---------------7-5-4-5-4-----|
A --------------5-555555555-----------5-3-333333333-----------7-5-|
E ----------------------------------------------------------------|

G ----------------------------------------------------------------|
D -----------7-5-4-5-4-5-7-777777777-7/9-999999999b---------------|
A -555555555------------------------------------------------------|
E ----------------------------------------------------------------|
                  x4
G --------------------|-------------------------------------------|
D .------------------.|-3.--3.--3.--3----5.--5.--5.--5------------|
A .5.--5.--5.--5-3~--.|--------------5~----------------3----------|
E --------------------|-------------------------------------------|

Break 3:58                  x2
G ----------------------------|-------------------|
D .--------------------------.|-3.---5.-----------|
A .5--5--5--5--5--5-3-5-3-5-3.|-------------------|
E ----------------------------|-------------------|

Outro 4:08                  x5         x2
G ----------------------------|----------|------------------------||
D .--------------------------.|.3.---5.-.|-3333333333333355555555-||
A .5--5--5--5--5--5-3-5-3-5-3.|.--------.|------------------------||
E ----------------------------|----------|------------------------||

G ----------------||
D -5555555555-----||
A -----------5~---||
E ----------------||
comments
print report bad tab
8 comments total. Showing first comments. show 1 bad comment
+3 reply
ruy006 wrote on May 5 2007, 05:59 pm

Wtf r u talking about? this song does have bass. Btw, in the bridge is not like that, its something like:

G ----------------------------------------------------------------|
D ----7-5-4-5-4-------7-5-4-5-4-------7-5-4-5-4-------7-5-4-5-4-5-|
A -5~-----------5-3~------------7-5~------------5-3~--------------|
E ----------------------------------------------------------------|

G ----------------------------------------------------------------|
D -7~----------------------7-5-4-5-4-----7-5-4-5-4-----7-5-4-5-4-5|
A ----------012~--210---5-------------5-3----------7-5------------|
E ------0134---------431------------------------------------------|

G -----------------------|
D -7~--------------------|
A ----------012~--210----| (Not sure about that,
E ------0134---------431-| - but its something like that)

x4
G --------------------|-------------------------------------------|
D .------------------.|-3.--3.--3.--3----5.--5.--5.--5------------|
A .5.--5.--5.--5-3~--.|--------------5~----------------3----------|
E --------------------|-------------------------------------------|




0 reply
nun101 wrote on May 9 2007, 06:39 pm

since the guitar clearly plays the intro/verse like this i think the bass goes along with the guitar like this:

G------------------------------|-------------------------------|
D------------------------------|--------------------------3----|
A--5--5--5--5--5--5-3-5-3-5-3-5|-5--5--5--5--5--5-3-5-3-5---5--|
E--------------------------------------------------------------|

then it leads into the part before the chorus and other part. so every second time you play the the whole thing it goes to one of these:

G---------| G----------------------------|
D-3-----5-| and D--3--3--3--3-5--5-3-5-3-5-3-|
A---------| A----------------------------|
E---------| E----------------------------|


I want to post or [tab]
guest
You may want to rate the tab now too:
select rating
Please do not post tabs as comments. Select "correction" instead!