Oops, an error
Loading. Please wait.
We have an official Joker And The Thief tab made by UG professional guitarists. Check out the tab »
×
5,698 views 15 this week
7 commentsread comments
1 2 3 4 5
x 3
add to favorites
×
Save as Personal and add changes to this tab that will be seen only by you. Learn more ›
×
You can save this tab as Personal to edit and correct it or add notes. All changes will be seen only by you. Learn more »
launch autoscroll
font size
0
reset
how to read this tab
guitar tuner
backing track
0:00
0:00
edit
Autoscroll
slow
fast
+/-
esc
set tempo
stop
Im positive that this is 100% correct. It's just hard doin that intro as many times as 
does it!  E-mail me if there's any complaints.


Intro-
d--------------|
a--------------|
f-------0h5h7--|
c--0h5h7-------| x alot
g--------------|
D--------------|

Prelude-
d---------------------------------|    |d---------------------------------|
a---------------------------------|    |a---------------------------------|
f---------------------------------|    |f---------------------------------|
c---------------------------------| x3 |c--10-10-10-10-12-12-10h12-10h12--|
g--12-12-12-12-12-12-10h12-10h12--|    |g--10-10-10-10-12-12-10h12-10h12--|
D--12-12-12-12-12-12-10h12-10h12--|    |D---------------------------------|

Verse-
d---------------------------------|    |d---------------------------------|
a---------------------------------|    |a---------------------------------|
f---------------------------------|    |f---------------------------------|
c---------------------------------| x5 |c--10-10-10-10-12-12-10h12-10h12--|
g--12-12-12-12-12-12-10h12-10h12--|    |g--10-10-10-10-12-12-10h12-10h12--|
D--12-12-12-12-12-12-10h12-10h12--|    |D---------------------------------|

then-
d---------------------------------|    |d---------------------|
a---------------------------------|    |a---------------------|
f---------------------------------|    |f---------------------|
c---------------------------------| x5 |c--10-------------12--|
g--12-12-12-12-12-12-10h12-10h12--|    |g--10-------------12--|
D--12-12-12-12-12-12-10h12-10h12--|    |D---------------------|


Chorus-(same as intro)


Verse-
d---------------------------------|    |d---------------------|
a---------------------------------|    |a---------------------|
f---------------------------------|    |f---------------------|
c---------------------------------| x7 |c---------------------|
g--12-12-12-12-12-12-10h12-10h12--|    |g--10-------------12--|
D--12-12-12-12-12-12-10h12-10h12--|    |D---------------------|

then-
d---------------------------------|    |d---------------------|
a---------------------------------|    |a---------------------|
f---------------------------------|    |f---------------------|
c---------------------------------| x5 |c--10-------------12--|
g--12-12-12-12-12-12-10h12-10h12--|    |g--10-------------12--|
D--12-12-12-12-12-12-10h12-10h12--|    |D---------------------|


Chorus-(same as intro)


Solo
d------------------------------------------------------------------------|
a------------------------------------------------------------------------|
f------------------------------------------------------------------------|
c---9-7-6-7-6-----9-7-6-7-6-----9-7-6-7-6-----9-7-6-7-6-7/9--9/11--11/14-|
g-9-----------7-5-----------9-7-----------7-5----------------------------|
D------------------------------------------------------------------------|

d----------------------------------------------------------------|
a----------------------------------------------------------------|
f-16-14-13-14-13-------16-14-13-14-13-------16-14-13-14-13-------|
c----------------14-12----------------16-14----------------14-12-|
g----------------------------------------------------------------|
D----------------------------------------------------------------|

d-------------------------------------------------15------------------17-|
a--------------------------------17--17--17--17p15---17--17--17--17p15---|
f-16-14-13-14-13-14/16--16/18--18----------------------------------------|
c------------------------------------------------------------------------|
g------------------------------------------------------------------------|
D------------------------------------------------------------------------|

d------------------15-------------------17b17~~~~~p15-----------------|
a--17--17--17-17p15----17--17--17--17p15-------------17~~~^-^-^-^-^-^-|
f---------------------------------------------------------------------|
c---------------------------------------------------------------------|
g---------------------------------------------------------------------|
d---------------------------------------------------------------------|


Ending-
d---------------------------------|    |-------------------------------------|
a---------------------------------|    |-------------------------------------|
f---------------------------------|    |-------------------------------------|
c---------------------------------| x5 |-10--12--10--12-10101010-12121212----|
g--12-12-12-12-12-12-10h12-10h12--|    |-10--12--10--12-10101010-12121212----|
D--12-12-12-12-12-12-10h12-10h12--|    |----------------------------------12-|

            
            
Suggest correction
Creating personal tab
Creating personal tab
You can edit any tab online and save it as your Personal.

You can edit, replace or remove any tab part or add personal notes – all changes will be seen only by you.

Personal tabs can be accessed anytime from any device, even offline.
Learn more »
Give kudos to tab author, rate the tab!
1 2 3 4 5
comments
print report bad tab
7 comments total. Showing first comments.
0 reply
cheezwinkle 10 Oct 13, 2006 01:36 AM

the verse sounds a bit high, maybe drop from 12th fret to 7th, but it can still sound the same

0 reply
cheezwinkle 10 Oct 13, 2006 01:37 AM

the intro goes for 40 seconds....

0 reply
cheezwinkle 10 Dec 20, 2006 08:11 PM

my first comment is wrong, sorry, good tab

guest
You may want to rate the tab now too:
select rating
Wanna post a correction for this tab? Suggest correction