Oops, an error
Loading. Please wait.
We have an official Joker And The Thief tab made by UG professional guitarists. Check out the tab »
×
30,791 views 6 this week
8 commentsread comments
1 2 3 4 5
x 17
add to favorites
×
Save as Personal and add changes to this tab that will be seen only by you. Learn more ›
×
You can save this tab as Personal to edit and correct it or add notes. All changes will be seen only by you. Learn more »
launch autoscroll
font size
0
reset
how to read this tab
guitar tuner
backing track
0:00
0:00
edit
Autoscroll
slow
fast
+/-
esc
set tempo
stop
Difficulty
intermediate
----------------------------------------------------------------------------
          JOKER AND THE THIEF - Wolfmother
----------------------------------------------------------------------------
Tabbed by: CozZa!
Email: cozza_087@hotmail.com
i think this tab is pretty close might be off in some parts but pretty good!
Tuning: standard
intro
e|-------------------------------------------------------------------------|
B|-------------------------------------------------------------------------|
G|--------0h5h7---------0h5h7--------0h5h7-------0h5h7-------0h5h7---------|
D|-0h5h7---------0h5h7--------0h5h7--------0h5h7-------0h5h7-------0h5h7---|
A|-------------------------------------------------------------------------|
E|-------------------------------------------------------------------------|
verse             (x3)                              (then this part)
e|-------------------------------------------|-----------------------------|
B|-------------------------------------------|-----------------------------|
G|-7---7---7---7---7---7---5/7---5/7---5-/-7-|-10--10--10--10--12--12--10/-|
D|-7---7---7---7---7---7---5/7---5/7---5-/-7-|-10--10--10--10--12--12--10/-|
A|-5---5---5---5---5---5---3/5---3/5---3-/-5-|--8---8---8---8--10--10---8/-|
E|-------------------------------------------|-----------------------------|

e|-------------------------------------------------------------------------|
B|-------------------------------------------------------------------------|
G|-12--10/12--10-----------------------------------------------------------|
D|-12--10/12--10-----------------------------------------------------------|
A|-10---8/10---8-----------------------------------------------------------|
E|-------------------------------------------------------------------------|
solo
e|------------|------------------|------------|------------------|---------|
B|------------|------------------|------------|------------------|---------|
G|------------|------------------|------------|------------------|---------|
D|-7----------|-7--5--4--5--4----|-5----------|-7--5--4--5--4----|-7-------|
A|-5----------|----------------5-|-3----------|----------------7-|-5-------|
E|------------|------------------|------------|------------------|---------|
   let ring                       let ring                         let ring
e|------------------|------------|--------------------|--------------------|
B|------------------|------------|--------------------|--------------------|
G|------------------|------------|--------------------|--------------------|
D|-7--5--4--5--4----|-5----------|-7--5--4--5--4--5/7-|-7/9------9------9/-|
A|----------------5-|-3----------|--------------------|--------------------|
E|------------------|------------|--------------------|--------------------|
                                                  let ring
e|-------------|------------------------|-------------|----------------------|
B|-------------|------------------------|-------------|----------------------|
G|-------------|-14--12--11--12--11-----|-------------|-14-12-11-12-11-------|
D|/12----------|---------------------12-|-10----------|----------------14/12-|
A|-------------|------------------------|-------------|----------------------|
E|-------------|------------------------|-------------|----------------------|
  let ring                                                          let ring
e|-------------------|-------------|----------------------|----------------|
B|-------------------|-------------|----------------------|----------------|
G|-14-12-11-12-11----|-------------|-14-12-11-12-11-12/14-|-14/16---16---16|
D|----------------12-|-10----------|----------------------|----------------|
A|-------------------|-------------|----------------------|----------------|
E|-------------------|-------------|----------------------|----------------|
                          (x2)                     let ring
e|--------------|----------|-------------|----------|------------------------|
B|--------------|--------18|-------------|--------20|------------------------|
G|-19---19---19-|---19p17--|-19---19---19|---19p17--|------------------------|
D|--------------|----------|-------------|----------|------------------------|
A|--------------|----------|-------------|----------|------------------------|
E|--------------|----------|-------------|----------|------------------------|


| /  slide up
| \  slide down
| h  hammer-on
| p  pull-off
| ~  vibrato
| +  harmonic
| x  Mute note
===============================================================================
Suggest correction
Creating personal tab
Creating personal tab
You can edit any tab online and save it as your Personal.

You can edit, replace or remove any tab part or add personal notes – all changes will be seen only by you.

Personal tabs can be accessed anytime from any device, even offline.
Learn more »
comments
print report bad tab
8 comments total. Showing first comments.
0 reply
jimmyj123 10 Nov 29, 2006 09:26 PM

great ab

0 reply
BoyScout 10 Nov 30, 2006 04:09 PM

I have the Guitar-world tab and this is wrong.

0 reply
BoyScout 10 Nov 30, 2006 04:10 PM

The tab is just wrong except for the intro and maybe the interlude.

guest
Wanna post a correction for this tab? Suggest correction