Oops, an error
Loading. Please wait.
We have an official Joker And The Thief tab made by UG professional guitarists. Check out the tab »
×
11,885 views 12 this week
4 commentsread comments
1 2 3 4 5
x 3
add to favorites
×
Save as Personal and add changes to this tab that will be seen only by you. Learn more ›
×
You can save this tab as Personal to edit and correct it or add notes. All changes will be seen only by you. Learn more »
launch autoscroll
font size
0
reset
how to read this tab
guitar tuner
backing track
0:00
0:00
edit
Autoscroll
slow
fast
+/-
esc
set tempo
stop
Intro                                         ^=hammer on
                                              *=pull off

e------------------------------|
b------------------------------|
g-----------0-5^7--------------|
d-----0-5^7--------------------| #)Listen to Track to find out how many times
a------------------------------|                  To Play
d------------------------------|

A)
e---------------------------------------------|
b---------------------------------------------|
g---------------------------------------------|
d--12-12-12-12-12-12-12*10^12*10^12-----------| #
a--12-12-12-12-12-12-12*10^12*10^12-----------|
d--12-12-12-12-12-12-12*10^12*10^12-----------|

After You Play "A" Twice Go To B

B)
e-----------------------------------------|
b-----------------------------------------|
g-----------------------------------------|
d--15-15-15-15-17-17-17*15^17*15----------|
a--15-15-15-15-17-17-17*15^17*15----------|
d--15-15-15-15-17-17-17*15^17*15----------|

Guitar Break(this is my favorite part=])
e------------------------------------------|
b------------------------------------------|
g------------------------------------------|          /=sl.
d--7---/7-5-4-5-4------/7-5-4-5-4----------|
a--5--------------5-3------------7-5-------|
d------------------------------------------|

e-------------------------------------------------|
b-------------------------------------------------|
g-------------------------------------------------|
d------/7-5-4-5-4------/7-5-4-5-4-5-5/7-7/9-------|
a-----------------5-3-----------------------------|
d-------------------------------------------------|

e------------------------------------------------------------|
b------------------------------------------------------------|
g------14--12--11--12--11----------14--12--11--12--11--------|
d--12----------------------12--10----------------------14-12-|
a------------------------------------------------------------|
d------------------------------------------------------------|

e---------------------------------------------------------------------|
b---------------------------------------------------------------------|
g------14--12--11--12--11----------14--12--11--12--11--12/14--14/16~~-|
d--12----------------------12--10-------------------------------------|
a---------------------------------------------------------------------|
d---------------------------------------------------------------------|

e-------------------------------------------|
b-----------------18----------------20------|
g--19-19-19-19*17----19-19-19-19*17---------|
d-------------------------------------------|   #
a-------------------------------------------|
d-------------------------------------------|

(in this last part ^=bend)
e-------------------------|
b---20^22---20^22*18------|
g--------------------19---|
d-------------------------|
a-------------------------|
d-------------------------|


These are riffs from Joker and the Thief by Wolfmother
Suggest correction
Creating personal tab
Creating personal tab
You can edit any tab online and save it as your Personal.

You can edit, replace or remove any tab part or add personal notes – all changes will be seen only by you.

Personal tabs can be accessed anytime from any device, even offline.
Learn more »
Give kudos to tab author, rate the tab!
1 2 3 4 5
comments
print report bad tab
4 comments total. Showing first comments.
0 reply
bearded_monkey 101 Nov 14, 2006 10:47 AM

Dude didnt you just copy the version 1 of this tab? You just put in different symobols for hammer-ons and pull-offs! Thats plagerism man!

0 reply
bearded_monkey 101 Nov 14, 2006 10:48 AM

*symbols

-1 reply
Matty_Hendrix 10 Nov 14, 2006 10:06 PM

bit amatuerish...dont use phrases like "listen to the song to find out how many times its played" thats just slack

guest
You may want to rate the tab now too:
select rating
Wanna post a correction for this tab? Suggest correction