Oops, an error
Loading. Please wait.

Love Train bass

version 1
version 1

Whole song

Interactive

9,848 views 12 this week
4 commentsread comments
1 2 3 4 5
x 9
add to favorites
×
Save as Personal and add changes to this tab that will be seen only by you. Learn more ›
×
You can save this tab as Personal to edit and correct it or add notes. All changes will be seen only by you. Learn more »
launch autoscroll
font size
0
reset
guitar tuner
edit
Autoscroll
slow
fast
+/-
esc
set tempo
stop
Author
Difficulty
----------------------------------------------------------------------------
			     LOVE TRAIN - Wolfmother
----------------------------------------------------------------------------
Tabbed by: Hughma Coll
(Reworked Nick Rowe's tab for bass)
this tab isn't supposed to be perfect, parts are made up so it can be played without a keyboard

Tuning: standard EADG


| s  slide up/down
| h  hammer-on
| p  pull-off
| ~  vibrato
| +  harmonic
| x  Mute note


Percussion intro: (0:00)

Intro: (00:10)
G|------------------------------|
D|------------------------------|[x3]
A|---------8-10-10--8p6---6-----|
E|--8--8----------------8---8-6-|

Verse: (00:18)
G|------------------------------|------------------------------|
D|------------------------------|------------------------------|[x5]
A|---------8-10-10--8p6---6-----|-----8-10-10--8p6---6---------|
E|--8--8----------------8---8-6-|-8-8--------------8----8-6----|

Chorus: (00:42)
G|------------------------------------|
D|------------------------------------|
A|------------------------------------|
E|---10------------11------------10---|

Verse: (00:47)
G|------------------------------|
D|------------------------------|[x2]
A|---------8-10-10--8p6---6-----|
E|--8--8----------------8---8-6-|

Chorus2: (00:52)
G|------------------------------------|
D|------------------------------------|
A|------------------------------------|
E|---10------------11------------10---|

Verse: (00:58)
G|------------------------------|
D|------------------------------|
A|---------8-10-10--8p6---6-----|
E|--8--8----------------8---8-6-|

Verse: (1:00)
G|------------------------------|------------------------------|
D|------------------------------|------------------------------|[x5]
A|---------8-10-10--8p6---6-----|-----8-10-10--8p6---6---------|
E|--8--8----------------8---8-6-|-8-8--------------8----8-6----|

Chorus: (1:24)
G|------------------------------------|
D|------------------------------------|
A|------------------------------------|
E|---10------------11------------10---|

Solo 1: (1:30) (No Bass from here onwards,but this sounds alright without a keyboard)
G|------------------------------------|
D|------------------------------------|
A|--------10-8~---10-----10-8~----10--|
E|---8~--------------8~---------------|

G|--------------------------------------|
D|--------------------------------------|
A|--------12-10~---12------12-10~----10-|
E|---10~--------------10~---------------|


Funky Keyboard Breakdown: (1:49)
This would be a good time for a bass solo, messing around in c major pentatonic scale
something like...
G|-------------8-------------|
D|-----------8---10-8-10-----|
A|--------10-------------10--|
E|--8--8---------------------|

G|------------------8~-------|
D|-------------8-10----------|
A|--------8-10---------------|
E|--8--8---------------------|
                                    x2
G|--------------10-8---------|
D|-----------10------10------|
A|--------10------------10---|
E|--8--8---------------------|


G|------------------8-10-12--|
D|-------------8-10----------|
A|--------8-10---------------|
E|--8--8---------------------|


Chorus (2:10)
G|------------------------------------|
D|------------------------------------|
A|------------------------------------|
E|---10------------11------------10---|

Verse (2:15)
G|------------------------------|
D|------------------------------|[x2]
A|---------8-10-10--8p6---6-----|
E|--8--8----------------8---8-6-|

Chorus (2:20)
G|------------------------------------|
D|------------------------------------|
A|------------------------------------|
E|---10------------11------------10---|

Bridge: (2:25)
G|---------------------------------------------------------------------|
D|---------------------------------------------------------------------|
A|---------------------------------------------------------------------|
E|--8-------8-------8--------8--------8---8---8---8---8---8---8---8---8|
           'Love      love      love     love'  etc..........................

Solo 2 (2:36)
G|------------------------------------|
D|------------------------------------|
A|--------10-8~---10-----10-8~----10--|
E|---8~--------------8~---------------|

G|--------------------------------------|
D|--------------------------------------|
A|--------12-10~---12------12-10~----12-|
E|---10~--------------10~---------------|

G|--------|
D|--------|
A|--------|
E|--8--8--|

I'm pretty confident this all sounds alright, but there's the comments link above for 
suggestions. Cheers.
============================================================================
Suggest correction
Creating personal tab
Creating personal tab
You can edit any tab online and save it as your Personal.

You can edit, replace or remove any tab part or add personal notes – all changes will be seen only by you.

Personal tabs can be accessed anytime from any device, even offline.
Learn more »
comments
print report bad tab
4 comments total. Showing first comments.
0 reply
dangifurget 10 Feb 04, 2007 06:15 AM

nice tab

0 reply
ArcticMonk 10 Apr 23, 2007 09:33 AM

This is a very accurate tab and everything on it is right except that there is a bass playing during the keyboard solo it sounds pretty faint though.Good job on the tab!

0 reply
bearded_monkey 101 Apr 28, 2007 05:59 AM

Nice :D me likey!

guest
You may want to rate the tab now too:
select rating
Wanna post a correction for this tab? Suggest correction