Oops, an error
Loading. Please wait.

Love Train tab

version 3
version 3

Whole song

Interactive

53,208 views 39 this week
20 commentsread comments
1 2 3 4 5
x 55
add to favorites
×
Save as Personal and add changes to this tab that will be seen only by you. Learn more ›
×
You can save this tab as Personal to edit and correct it or add notes. All changes will be seen only by you. Learn more »
launch autoscroll
font size
0
reset
how to read this tab
guitar tuner
edit
Autoscroll
slow
fast
+/-
esc
set tempo
stop
Author
Difficulty
-------------------------------------------------------------------------------
                             LOVE TRAIN - Wolfmother
-------------------------------------------------------------------------------
Tabbed by: Nick Rowe
Email: comments, hints, stuff: sober_drunk7@hotmail.com

Tuning: standard EADGBe
The other tabs for this song are a bit rubbish so i've knocked this out for those who 
it right. You all probably know, v.hard to show rythm and timings etc on these tabs so 
to the song for these.


Percussion intro: (0:00)

[Intro:] (00:10)
e|-----------------------------|
B|-----------------------------|
G|-----------------------------|
D|-10-10-----------------------|[x3]
A|-10-10---8-10-10--8p6---6----|
E|--8--8----------------8---8--|

[Verse:] (00:18)
e|-----------------------------------------------------------------|
B|-----------------------------------------------------------------|
G|-----------------------------------------------------------------|
D|-10-10-----------------------10--[rest-for-bass-riff-and-lyrics]-|[x5]
A|-10-10---8-10-10--8p6---6----10----------------------------------|
E|--8--8----------------8---8---8----------------------------------|

[Chorus:] (00:42)
e|------------------------------------|
B|------------------------------------|
G|------------------------------------|
D|---12------------13------------12---|
A|---12------------13------------12---|
E|---10------------11------------10---|

[Verse:] (00:47)
e|-----------------------------|
B|-----------------------------|
G|-----------------------------|
D|-10-10-----------------------|[x2]
A|-10-10---8-10-10--8p6---6----|
E|--8--8----------------8---8--|

[Chorus 2:] (00:52)
e|------------------------------------|
B|------------------------------------|
G|------------------------------------|
D|---12------------13------------12---|
A|---12------------13------------12---|
E|---10------------11------------10---|

[Verse:] (00:58)
e|-----------------------------|
B|-----------------------------|
G|-----------------------------|
D|-10-10-----------------------|
A|-10-10---8-10-10--8p6---6----|
E|--8--8----------------8---8--|

[Verse:] (1:00)
e|---------------------------------------------------|
B|---------------------------------------------------|
G|---------------------------------------------------|
D|-10-10-----------------------10--[rest-for-lyrics]-|[x5]
A|-10-10---8-10-10--8p6---6----10--------------------|
E|--8--8----------------8---8---8--------------------|

[Chorus:] (1:24)
e|------------------------------------|
B|------------------------------------|
G|------------------------------------|
D|---12------------13------------12---|
A|---12------------13------------12---|
E|---10------------11------------10---|

[Solo 1:] (1:30)
e|---------------------------------------------------------------------------|
B|---------------------------------------------------------------------------|
G|----------------8-10bubdp8-----------8-7-8-7-8-7--------------------------8|
D|-----------8h10------------10---8-10-------------8-10---8h10p8----8--10----|
A|------8h10-----------------------------------------------------10----------|
E|-8h10----------------------------------------------------------------------|

e|---------------------------------------------------------------------------|
B|---------------------------------------------------------------------------|
G|-------------------------------10---------10-12-10bu-----------------------|
D|-10-8--------------10h12p10-12----12-12----------------12-12---10h12p10----|
A|------10-8h10s12--------------------------------------------------------12-|
E|---------------------------------------------------------------------------|

e|-------------------------------------------------|
B|-------------------------------------------------|
G|-------------------------------------------------|
D|-10-----------10h12p10----10-12--12bu[hold bend]-|
A|----12--10h12----------12------------------------|
E|-------------------------------------------------|

Funky Keyboard Breakdown: (1:49)
For this you can just mess about on the c major pentatonic scale, or i read in the other 
about removing the jack and touching it to the bridge of your guitar(?) while messing 
the wah pedal, haven't tried this but, meh, give it a shot.

[Chorus] (2:10)
e|------------------------------------|
B|------------------------------------|
G|------------------------------------|
D|---12------------13------------12---|
A|---12------------13------------12---|
E|---10------------11------------10---|

[Verse] (2:15)
e|-----------------------------|
B|-----------------------------|
G|-----------------------------|
D|-10-10-----------------------|[x2]
A|-10-10---8-10-10--8p6---6----|
E|--8--8----------------8---8--|

[Chorus] (2:20)
e|------------------------------------|
B|------------------------------------|
G|------------------------------------|
D|---12------------13------------12---|
A|---12------------13------------12---|
E|---10------------11------------10---|

[Bridge:] (2:25)
e|---------------------------------------------------------------------------|
B|---------------------------------------------------------------------------|
G|---------------------------------------------------------------------------|
D|-10--------10--------10--------10--------10--10--10--10--10--10--10--10--10|
A|-10--------10--------10--------10--------10--10--10--10--10--10--10--10--10|
E|--8---------8---------8---------8---------8---8---8---8---8---8---8---8---8|
           'Love      love      love     love'  etc..........................

[Solo 2] (2:36)
e|---------------------------------------------------------------------------|
B|---------------------------------------------------------------------------|
G|----------------8-10bu[hold]bdp8----8----------------------------------8---|
D|-----------8h10------------------10---10-10--------8h10p8----8-10-10-----10|
A|------8h10------------------------------------8h10--------10---------------|
E|-8h10----------------------------------------------------------------------|

e|---------------------------------------------------------------------------|
B|---------------------------------------------------------------------------|
G|-8-10----10----10s12---12bu[hold]-12bu-12bu-12p10----10--------10----------|
D|------13----13------------------------------------12-----10h12----12-10-12-|
A|---------------------------------------------------------------------------|
E|---------------------------------------------------------------------------|

e|----------------------------------------------------|
B|----------------------------------------------------|
G|-------------10-12-12bu[hold]--10p8----8------------|
D|-------10-12------------------------10---10--10-10--|
A|-10h12---------------------------------------10-10--|
E|----------------------------------------------8--8--|


I'm pretty confident this is absolutely correct, but there's the comments link above and 
e-mail for any suggestions. Cheers.
===============================================================================


************************************

| s  slide up/down
| h  hammer-on
| p  pull-off
| ~  vibrato
| +  harmonic
| x  Mute note 

************************************

            
            
Suggest correction
Creating personal tab
Creating personal tab
You can edit any tab online and save it as your Personal.

You can edit, replace or remove any tab part or add personal notes – all changes will be seen only by you.

Personal tabs can be accessed anytime from any device, even offline.
Learn more »
comments
print report bad tab
20 comments total. Showing first comments.
0 reply
Grinspoon-Guy 41 Sep 05, 2006 01:38 AM

Sweet tab dude i was gonna tab it but you've done it right! I think for the main riff tho u should end on this:

D|-10-10------------------------|
A|-10-10---8-10-10--8p6---6---6-|
E|--8--8----------------8---8---|

not that it really matters cos this tab kicks a.s.s

0 reply
METSOAD 1,622 Sep 06, 2006 10:58 PM

smacked it, you are a genius

0 reply
rockN'roll 20 Dec 04, 2006 08:47 AM

Alright dude I sent you an email with 2 changes but otherwise nice job.

guest
You may want to rate the tab now too:
select rating
Wanna post a correction for this tab? Suggest correction