Oops, an error
Loading. Please wait.

Minds Eye tab

version 3
version 3

Whole song

Interactive

16,802 views 9 this week
5 commentsread comments
1 2 3 4 5
x 21
add to favorites
×
Save as Personal and add changes to this tab that will be seen only by you. Learn more ›
×
You can save this tab as Personal to edit and correct it or add notes. All changes will be seen only by you. Learn more »
launch autoscroll
font size
0
reset
how to read this tab
guitar tuner
backing track
0:00
0:00
edit
Autoscroll
slow
fast
+/-
esc
set tempo
stop
Author
ARTIST - Wolfmother
ALBUM - Self Titled
SONG - Mind's Eye

standard tuning. A Big Muff or a Fuzz Face works well for most wolfmother songs but an 
overdrivey pedal is good here for the clean sounding verse stuff

There some keys at the start like fading in but the first guitar bit goes like this

INTRO - Clean
E|---12---12---12---12-|---12---12---12---12-|
B|-13---13---13---13---|-12---12---12---12---|
G|---------------------|---------------------|
D|---------------------|---------------------|
A|---------------------|---------------------|
E|---------------------|---------------------|

E|---12---12---12---12-|---12---12---12---12-|
B|-10---10---10---10---|-10---10---10---10---|
G|---------------------|---------------------|
D|---------------------|---------------------|
A|---------------------|---------------------|
E|---------------------|---------------------|

Play that twice, then the verse chords

VERSE - clean, slight OD
   Am			 G    		
E|--5------------------|--3------------------|
B|--5------------------|--3------------------|
G|--5------------------|--4------------------|
D|--7------------------|--5------------------|
A|--7------------------|--5------------------|
E|--5------------------|--3------------------|

   F			 F
E|--1------------------|--(1)----------------|
B|--1------------------|--(1)----------------|
G|--2------------------|--(2)----------------|
D|--3------------------|--(3)----------------|
A|--3------------------|--(3)----------------|
E|--1------------------|--(1)----------------|

play those chords once and then 3 times with vocals. on the last time, 
instead of playing the last 2 F chords play this

PRE CHORUS
E|------------------|------------------|-------------------|-----------------|
B|------------------|------------------|-------------------|-----------------|
G|------------------|--------------12--|--14~~-------------|-----------------|
D|--3----5----7---9-|--10--12--14--12--|--14~~-------------|--5~~------------|
A|--3----5----7---9-|--10--12--14--10--|--12~~-------------|--5~~------------|
E|--1----3----5---7-|--8---10--12------|-------------------|--3~~------------|

E|------------------|------------------|-------------------|-----------------|
B|------------------|------------------|-------------------|-----------------|
G|------------------|--------------12--|--14~~-----------7-|--5~~----------7-|
D|--3----5----7---9-|--10--12--14--12--|--14~~-----------7-|--5~~----------7-|
A|--3----5----7---9-|--10--12--14--10--|--12~~-----------5-|--3~~----------5-|
E|--1----3----5---7-|--8---10--12------|-------------------|-----------------|

CHORUS - W/Fuzz
E|------------------|------------------|-------------------|-----------------|
B|------------------|------------------|-------------------|-----------------|
G|----------------7-|--5~~-----------7-|-----------------7-|--5~~----------7-|
D|--7~~-----------7-|--5~~-----------7-|--7~~------------7-|--5~~----------7-|
A|--7~~-----------5-|--3~~-----------5-|--7~~------------5-|--3~~----------5-|
E|--5~~-------------|------------------|--5~~--------------|-----------------|
   Come and see the minds eye....  if we try
	
E|------------------|-----------3------|--5----------------|--3--------------|
B|------------------|-----------3------|--5----------------|--3--------------|
G|----------------7-|--5~~------4------|--5----------------|--4--------------|
D|--7~~-----------7-|--5~~------5------|--7----------------|--5--------------|
A|--7~~-----------5-|--3~~------5------|--7----------------|--5--------------|
E|--5~~-------------|-----------3------|--5----------------|--3--------------|
	               We can find it if we try
				(goes quiet again)

E|--1---------------|-(1)--------------|
B|--1---------------|-(1)--------------|
G|--2---------------|-(2)--------------|
D|--3---------------|-(3)--------------|
A|--3---------------|-(3)--------------|
E|--1---------------|-(1)--------------|


VERSE - clean, slight OD
   Am			 G    		
E|--5------------------|--3------------------|
B|--5------------------|--3------------------|
G|--5------------------|--4------------------|
D|--7------------------|--5------------------|
A|--7------------------|--5------------------|
E|--5------------------|--3------------------|
 well they say its right if it feels alright

   F			 F
E|--1------------------|--(1)----------------|
B|--1------------------|--(1)----------------|
G|--2------------------|--(2)----------------|
D|--3------------------|--(3)----------------|
A|--3------------------|--(3)----------------|
E|--1------------------|--(1)----------------|

Once again on the second time instead of playin the F chords play this

E|------------------|------------------|-------------------|-----------------|
B|------------------|------------------|-------------------|-----------------|
G|------------------|--------------12--|--14~~-----------7-|--5~~----------7-|
D|--3----5----7---9-|--10--12--14--12--|--14~~-----------7-|--5~~----------7-|
A|--3----5----7---9-|--10--12--14--10--|--12~~-----------5-|--3~~----------5-|
E|--1----3----5---7-|--8---10--12------|-------------------|-----------------|
					  come and see the minds eye

E|------------------|------------------|-------------------|-----------------|
B|------------------|------------------|-------------------|-----------------|
G|----------------7-|--5~~-----------7-|-----------------7-|--5~~----------7-|
D|--7~~-----------7-|--5~~-----------7-|--7~~------------7-|--5~~----------7-|
A|--7~~-----------5-|--3~~-----------5-|--7~~------------5-|--3~~----------5-|
E|--5~~-------------|------------------|--5~~--------------|-----------------|

E|------------------|------------------|
B|------------------|------------------|
G|------------------|--------------12--|
D|--3----5----7---9-|--10--12--14--12--|
A|--3----5----7---9-|--10--12--14--10--|
E|--1----3----5---7-|--8---10--12------|

OK now heres where the organ bit is, its playable on guitar but its hard to stop 
the notes ringing out, i fingerpicked it and it worked out fine

E|-12----12----12----12----|12----12-----17----17-----|
B|---14----14----14----14--|--14----14-----19----19---|
G|-----14----14----14----14|----14----14-----19----19-|
D|-------------------------|--------------------------|
A|-------------------------|--------------------------|
E|-------------------------|--------------------------|
								x2
E|-15----15----15----15----|15----15-----17----17-----|
B|---17----17----17----17--|--17----17-----19----19---|
G|-----17----17----17----17|----17----17-----19----19-|
D|-------------------------|--------------------------|
A|-------------------------|--------------------------|
E|-------------------------|--------------------------|

that is repeated heaps and on the 3rd and 4th times theres some guitar that goes like this..
(the chords are cut short aswell) the guitar part is under te prgan bit s you can see where
it all falls into place

E|-12----12----12----12----|12----12-----17----17-----|
B|---14----14----14----14--|--14----14-----19----19---|
G|-----14----14----14----14|----14----14-----19----19-|
D|-------------------------|--------------------------|
A|-------------------------|--------------------------|
E|-------------------------|--------------------------|

E|-------------------------|--------------------------|
B|-------------------------|--------------------------|
G|-------------------------|-------------7------------|
D|-7-----------------------|-------------7------------|
A|-7-----------------------|-------------5------------|
E|-5-----------------------|--------------------------|


E|-15----15----15----15----|15----15-----17----17-----|
B|---17----17----17----17--|--17----17-----19----19---|
G|-----17----17----17----17|----17----17-----19----19-|
D|-------------------------|--------------------------|
A|-------------------------|--------------------------|
E|-------------------------|--------------------------|

E|-------------------------|--------------------------|
B|-------------------------|--------------------------|
G|-5-----------------------|-------------7------------|
D|-5-----------------------|-------------7------------|
A|-3-----------------------|-------------5------------|
E|-------------------------|--------------------------|

do that twice and then repeat it twice again but let the chords ring out 
instead of cutting them short

do a chorus like this letting the chords ring out. there also the faint organ 
behind this aswell i think

E|------------------|------------------|-------------------|-----------------|
B|------------------|------------------|-------------------|-----------------|
G|----------------7-|--5~~-----------7-|-----------------7-|--5~~----------7-|
D|--7~~-----------7-|--5~~-----------7-|--7~~------------7-|--5~~----------7-|
A|--7~~-----------5-|--3~~-----------5-|--7~~------------5-|--3~~----------5-|
E|--5~~-------------|------------------|--5~~--------------|-----------------|

E|------------------|------------------|-------------------|
B|------------------|------------------|-------------------|
G|------------------|------------------|--5--5--5----------|
D|--3---------------|--5---------------|--5--5--5----5--5--|
A|--3---------------|--5---------------|--3--3--3----5--5--|
E|--1---------------|--3---------------|-------------3--3--|
	The minds eye!

E|------------------|------------------|-------------------|-----------------|
B|------------------|------------------|-------------------|-----------------|
G|----------------7-|--5~~-----------7-|-----------------7-|--5~~----------7-|
D|--7~~-----------7-|--5~~-----------7-|--7~~------------7-|--5~~----------7-|
A|--7~~-----------5-|--3~~-----------5-|--7~~------------5-|--3~~----------5-|
E|--5~~-------------|------------------|--5~~--------------|-----------------|
   come and see the minds eye

E|------------------|------------------|-------------------|
B|------------------|------------------|-------------------|
G|------------------|--------------12--|--14~~-------------|
D|--3----5----7---9-|--10--12--14--12--|--14~~-------------|
A|--3----5----7---9-|--10--12--14--10--|--12~~-------------|
E|--1----3----5---7-|--8---10--12------|-------------------|

let that last chord ring out for ages and thats it, please comment/rate. 
it can get a bit confusing cos the chorus part always change but listen to the 
song and it should be easy.
Suggest correction
Creating personal tab
Creating personal tab
You can edit any tab online and save it as your Personal.

You can edit, replace or remove any tab part or add personal notes – all changes will be seen only by you.

Personal tabs can be accessed anytime from any device, even offline.
Learn more »
comments
print report bad tab
5 comments total. Showing first comments.
0 reply
boyonthehill@gm 51 Jul 28, 2006 08:02 AM

good job man, excellent

0 reply
1-3sambaturtle 10 Sep 02, 2006 09:16 AM

Nice tab

0 reply
Zhailzur 40 Dec 09, 2006 07:25 PM

Nice tab, nice song. Pretty easy to learn too.

guest
You may want to rate the tab now too:
select rating
Wanna post a correction for this tab? Suggest correction