Oops, an error
Loading. Please wait.

New Moon Rising tab

version 2
version 2

Whole song

Interactive

4,690 views 1 this week
5 commentsread comments
1 2 3 4 5
x 3
add to favorites
×
Save as Personal and add changes to this tab that will be seen only by you. Learn more ›
×
You can save this tab as Personal to edit and correct it or add notes. All changes will be seen only by you. Learn more »
launch autoscroll
font size
0
reset
how to read this tab
guitar tuner
backing track
0:00
0:00
edit
Autoscroll
slow
fast
+/-
esc
set tempo
stop
Author
Difficulty
Transcribed by Danleary

Hello Wolfmother.net!

Standard Tuning

Key

 ^ : Bend [1/4, 1/2, 1, etc.]
 v : Bring bend back down
 / : Slide into
 \ : Slide out of
 h : Hammer on
 p : Pull Off
(-): Do not pick note
 = : Vibrato
_____________________________________________________________________________

Intro

With wah-wah pedal 

0:00
        [1/4]
|-----------------------------|
|-----------------------------|
|-----------------------------|
|-----------------------------|
|------5-7^hold-5-------------|
|--5-7-------------7---5-7-7--|
                      Repeat 2X

0:07
        [1/4]
|-------------------------------|
|-------------------------------|
|-------------------------------|
|-------------------------------|
|------5-7^hold-5----------5----|
|--5-7-------------7---5-7---7--|
       

 0:11
        [1/4]
|-----------------------------------|
|-----------------------------------|
|-----------------------------------|
|-----------------------------------|
|------5-7^hold-5-------------------|
|--5-7-------------7---5-7-7--5-7\--|
       
_____________________________________________________________________________

Bridge

0:39

   A  B
|--------|
|--------|
|--------|
|--7--9--|
|--7--9--|
|--5--7--|
 Repeat 3X

_____________________________________________________________________________

Chorus

 0:50

|---------------------------------------|
|---------------------------------------|
|---------------------------------------|
|--7/9----7-----------------------------|
|-----------9---7h9p7--5-7-5------------|
|----------------------------7-7-7-7-7--|

 0:53
                           [1]
|---------------------------------------|
|---------------------------------------|
|----------------------7-9--9^v(9)p7----|
|--7/9---7---------7-9---------------7--|
|----------9---7h9----------------------|
|---------------------------------------|
                           
_____________________________________________________________________________

Verse

1:05

|----------------------------------------------------|
|--------------------------------------------10-12\--|
|------------7---7-------7---9-----7---11-11---------|
|--7/9---7h9---9-----7h9---9-----9---9---------------|
|----------------------------------------------------|
|----------------------------------------------------|
_____________________________________________________________________________

Solo

 2:22
   [1]                    [1]                    [1]
|--12^v(12)p10-----------12^v(12)p10------------12^v(12)p10-------|
|--------------12==---10-------------12==---10--------------12==--|
|-----------------------------------------------------------------|
|-----------------------------------------------------------------|
|-----------------------------------------------------------------|
|-----------------------------------------------------------------|

 2:27
                      [1]
|--------10----10-12-12^v(12)p10-------|
|--10h12----12-------------------12==--|
|--------------------------------------|
|--------------------------------------|
|--------------------------------------|
|--------------------------------------|

            
            
Suggest correction
Creating personal tab
Creating personal tab
You can edit any tab online and save it as your Personal.

You can edit, replace or remove any tab part or add personal notes – all changes will be seen only by you.

Personal tabs can be accessed anytime from any device, even offline.
Learn more »
Give kudos to tab author, rate the tab!
1 2 3 4 5
comments
print report bad tab
5 comments total. Showing first comments.
0 reply
danleary 853 Oct 01, 2009 07:23 AM

Correction: on the Chorus, he does not hit the 10th fret on the low E string. Instead, he moves down to the 5th fret on the A string.

Should look like this:

-----------------------------------------|
-----------------------------------------|
-----------------------------------------|
--7/9---7--------------------------------|
----------9---7h9p7--5--7--5-------------|
------------------------------7-7-7-7-7--|

0 reply
danleary 853 Oct 01, 2009 11:25 AM

Correction: On the Chorus, he does not hit the 10th fret on the low E string. Instead, he moves down to the 5th fret on the A string.

Should look like this:

-----------------------------------------|
-----------------------------------------|
-----------------------------------------|
--7/9---7--------------------------------|
----------9---7h9p7--5--7--5-------------|
------------------------------7-7-7-7-7--|

0 reply
andrew stockdal 31 Oct 13, 2009 08:30 AM

pretty good, but this sounds better can anyone do a tab i cant work it out... new to guitar and that :)

http://www.youtube.com/watch?v=tEA9XNkZn-Y&feature=related
especially the main rift bit

guest
You may want to rate the tab now too:
select rating
Wanna post a correction for this tab? Suggest correction