Oops, an error
Loading. Please wait.

New Moon Rising tab

version 3
version 3

Whole song

Interactive

977 views 6 this week
2 commentsread comments
1 2 3 4 5
2 more votes to show rating
add to favorites
×
Save as Personal and add changes to this tab that will be seen only by you. Learn more ›
×
You can save this tab as Personal to edit and correct it or add notes. All changes will be seen only by you. Learn more »
launch autoscroll
font size
0
reset
how to read this tab
guitar tuner
backing track
0:00
0:00
edit
Autoscroll
slow
fast
+/-
esc
set tempo
stop
This is only the main rift, ill do the intro soon hopefully. Don't know if 100%
right but sounds pretty decent. Standard tuning. First ever tab :)
must admit the lyrics might be abit off but they match the tune if they're
wrong.
Epic song nevertheless!

Tabbed by andrew stockdal

Into:

                          play this very quick before the verse
E-----------------     -----|
a-----------------     -----|
d-----------------     -----|
g-----------------     -----|
b-7-9b~-7---7---7-     -7-9-|
e--------9-9-9-9-9  x4 -----|

Verse:

E-5/7   play this after he says: 1 "...seen how you grow now"
a-5/7                            2 "...horses in ride"
d-5/7                            3 "...gonna have your say now"
g-7/9
b-7/9
e-5/7  x3


Main rift/chorus 1

E-------------------------   -------------------|
a-------------------------   -------------------|
d-------------------------   -----------9-11-9--|
g--9-7--------------------   -9-7---9-7-------9-|
b-9---9-7-9-7-5-7-5-7-----   -----9-------------|
e--------------------7----   -------------------| x2

E----------- --------- ----------------------|
a----------- --------- ---------------10-12--|
d---------7- -------9- --------9-11-11-------|
g--9-7-7-9-- 9-7-7-9-- -9-7-7-9--------------|
b-----9----- ---9----- ----9-----------------|
e----------- --------- ----------------------| x2


2nd verse

E-5/7   play this after he says: 1 "...gonna scare all the people"
a-5/7                            2 "...don't wanna be the whipping boy"
d-5/7                            3 "...time has come now"
g-7/9
b-7/9
e-5/7  x3

Main rift/chorus 2

E-------------------------   -------------------|
a-------------------------   -------------------|
d-------------------------   -----------9-11-9--|
g--9-7--------------------   -9-7---9-7-------9-|
b-9---9-7-9-7-5-7-5-7-----   -----9-------------|
e--------------------7----   -------------------| x2

E----------- --------- ----------------------|
a----------- --------- ---------------10-12--|
d---------7- -------9- --------9-11-11-------|
g--9-7-7-9-- 9-7-7-9-- -9-7-7-9--------------|
b-----9----- ---9----- ----9-----------------|
e----------- --------- ----------------------| x2

After chorus 2

E------------|
a------------|
d------------|  (This bit sounds so much better with pedals and that)
g------------|
b---------12-|
e-14-12-10---| x8 followed by intro again:

E----------------------|
a----------------------|
d----------------------|
g----------------------|
b-7-9b~-7---7---7------|
e--------9-9-9-9-9 x12-| (the 5th time volume decreases slightly)

Main rift/chorus 3

E-------------------------   -------------------|
a-------------------------   -------------------|
d-------------------------   -----------9-11-9--|
g--9-7--------------------   -9-7---9-7-------9-|
b-9---9-7-9-7-5-7-5-7-----   -----9-------------|
e--------------------7----   -------------------| x2

E----------- --------- ----------------------|
a----------- --------- ---------------10-12--|
d---------7- -------9- --------9-11-11-------|
g--9-7-7-9-- 9-7-7-9-- -9-7-7-9--------------|
b-----9----- ---9----- ----9-----------------|
e----------- --------- ----------------------| x2


Thanks :) feel free comments, corrections :)
Suggest correction
Creating personal tab
Creating personal tab
You can edit any tab online and save it as your Personal.

You can edit, replace or remove any tab part or add personal notes – all changes will be seen only by you.

Personal tabs can be accessed anytime from any device, even offline.
Learn more »
Give kudos to tab author, rate the tab!
1 2 3 4 5
comments
print report bad tab
2 comments total.
0 reply
andrew stockdal 31 Feb 10, 2010 09:27 AM

intro should be .
Into:

E----------------- -----
a----------------- -----
d----------------- -----
g----------------- -----
b-5-7b~-5---9---9- -5-9-
e--------7-7-7-7-7 x4 -----

sorry folks

0 reply
N04Hz_Ark 505 Jun 25, 2015 08:12 PM

Lack of formatting. Lack of accuracy. Lack of formatting. Lack of accuracy.

You have the string-notes upside down, it should be:

e-B-G-D-A-E, rather than, E-A-D-G-B-e

Most of the riffs are in-accurate too.

guest
You may want to rate the tab now too:
select rating
Wanna post a correction for this tab? Suggest correction