Oops, an error
Loading. Please wait.

Pleased To Meet You bass

3,369 views 3 this week
2 commentsread comments
1 2 3 4 5
x 3
add to favorites
×
Save as Personal and add changes to this tab that will be seen only by you. Learn more ›
×
You can save this tab as Personal to edit and correct it or add notes. All changes will be seen only by you. Learn more »
launch autoscroll
font size
0
reset
guitar tuner
edit
Autoscroll
slow
fast
+/-
esc
set tempo
stop
Author
Difficulty
Pleased to Meet you by Wolfmother
Tabbed by Pat Murphy
Standard tuning - EADG

Intro (about 0:10)
G----------|   |-------------------------|
D----------|   |-------------------------|
A----------|x1 |-------------------------|x3
E-3--3--3--|   |--5----5----5----3--3--3-|

Verse
G-------------------------|
D-------------------------|
A-------------------------|x4
E--5----5----5----3--3--3-|

G--------------------------------------------------------------------------|
D--------------------------------------------------------------------------|
A---------------------------------------8-----------0--1--2--3---3---3--/5-|
E-1~~~--3---5----5----5----3--3--3--1~~----5--3--0-------------------------|

Pre-Chorus
G-----------------------------------------------5h7p5--|
D--------------------------------------------5h7-----7-|
A-0--00-0-1-2-3--33-3-5-7-8--88-8-7-7-5--5-5-----------|
E------------------------------------------------------|

Chorus
G-----------------------------------------------------|
D-----------------------------------------------------|
A-0--0-0-1-2-3--3-3-5-7-8--8-8-8-7-7-5--5-5--5--5--5--|x3
E-----------------------------------------------------|

Verse x 4

G--------------------------------------------------------------------------|
D--------------------------------------------------------------------------|
A---------------------------------------8-----------0--1--2--3---3---3--/5-|
E-1~~~--3---5----5----5----3--3--3--1~~----5--3--0-------------------------|

Chorus x 4

Solo
G--------------------------------------------------------------------------|
D--------------------------------------------------------------------------|
A--------------------------------------------------------------------------|
E-5----5----5----5--\\1----1----1----1--//8----8----8----8--//10---10---10-|

----------------------------------------------------------------------------|
----------------------------------------------------------------------------|
----------------------------------------------------------------------------|
--10-\\5----5----5----5\\--1----1----1----1--//8----8----8----8//--10----10-|

----------------------------------------------------------------------------|
----------------------------------------------------------------------------|
--------------------3-3-3-------5-5-5-------3-3-3-------5-5-5-------3-3-3---|
--10----10\\--5-5-5-------3-3-3-------5-5-5-------3-3-3-------5-5-5-------3-|

----------------------------------|
-----------3-3-3-3-3-3-5--5--5--5-|
-----5-5-5------------------------|
-3-3------------------------------|

Chorus x 9

G-----------------------------------------5h7-7--|
D---------------------------------------7--------|
A-0--0-0-1-2-3--3-3-5-7-8--8-8-8-7-7-5-----------|x1
E------------------------------------------------|

Chorus x 2

Outro
G-----------------------------------------------------------------------|
D-----------------------------------------------------------------------|
A-----------------------------------------------------------------------|
E-5----5----5----3--3--3--5----5----5----3--3--3--5---rest---3--3--3--5-|


Wolfmother rules.

            
            
Suggest correction
Creating personal tab
Creating personal tab
You can edit any tab online and save it as your Personal.

You can edit, replace or remove any tab part or add personal notes – all changes will be seen only by you.

Personal tabs can be accessed anytime from any device, even offline.
Learn more »
Give kudos to tab author, rate the tab!
1 2 3 4 5
comments
print report bad tab
2 comments total.
0 reply
hippiehero 10 Jul 03, 2007 10:36 AM

hey man awesome tab...sounds great when played against the song...think you could write a bass tab for earth's rotation around the sun?

+1 reply
Germanjorge 10 Jun 08, 2008 01:19 PM

yeah it does rule.

guest
You may want to rate the tab now too:
select rating
Wanna post a correction for this tab? Suggest correction