Oops, an error
Loading. Please wait.

Pyramid tab

version 3
version 3

Whole song

Interactive

2,106 views 1 this week
3 commentsread comments
1 2 3 4 5
1 last vote to show rating
add to favorites
×
Save as Personal and add changes to this tab that will be seen only by you. Learn more ›
×
You can save this tab as Personal to edit and correct it or add notes. All changes will be seen only by you. Learn more »
launch autoscroll
font size
0
reset
how to read this tab
guitar tuner
edit
Autoscroll
slow
fast
+/-
esc
set tempo
stop
this is a great song to jam to soo here it is
WOlmother!!!

itro slash chorus thing
E--13-11-10--13-11-10-8-6-5-6-5--5-6-8-8--5-6-8-8--5-6-8-8--5-6-8-8--------|
B--------------------------------------------------------------------------|
G------------------------------------------------------------------    X 2-|
D--------------------------------------------------------------------------|
A--------------------------------------------------------------------------|
E--------------------------------------------------------------------------|

Verse

E---------------                                           e----------------|
B---------------                                           B----------------|
G-----3---------                                           G-----3----------|
D--5--3---------     the verse is mutedso hit the          D-----3----------|
A--5--1---------                                           A-----1----------|
E--3------------                                           E----------------|

then you do the intro part again


E--13-11-10--13-11-10-8-6-5-6-5--5-6-8-8--5-6-8-8--5-6-8-8--5-6-8-8--------|
B--------------------------------------------------------------------------|
G------------------------------------------------------------------    X 2-|
D--------------------------------------------------------------------------|
A--------------------------------------------------------------------------|
E--------------------------------------------------------------------------|

then you do this

E----------------------------|
B----------------------------|
G----------------------------|   X4 then
D-5--5--5--5--5--5-----------|
A-5--5--5--5--5--5--3-1---1--|
E-3--3--3--3--3--3------3----|

E-------------------------------------------------------|
B-------------------------------------------------------|
G--7--7--7--7--7--7-----------5--5--5--5----------------|
D--7--7--7--7--7--7--5-3---3--5--5--5--5---5-3--3-------|
A--5--5--5--5--5--5------5----3--3--3--3-------5---5-3--|
E-------------------------------------------------------|
then heres the little bridge
E------------------------------------|
B------------------------------------|
G------------------------------------|          here is the solo im too lazy to tab it
D--5--3--5--3--8--10--5--3-----------|          but knnow that it is in the key of g!!
A--5--3--5--3--8--10--5--3-----------|
E--3--1--3--1--10--8--3--1-----------|

then go back to the verse part
and after that the intro and then the little riff wiht the G,D,C
and thats it!!!
i hope its not too confusing

            
            
Suggest correction
Creating personal tab
Creating personal tab
You can edit any tab online and save it as your Personal.

You can edit, replace or remove any tab part or add personal notes – all changes will be seen only by you.

Personal tabs can be accessed anytime from any device, even offline.
Learn more »
Give kudos to tab author, rate the tab!
1 2 3 4 5
comments
print report bad tab
3 comments total.
0 reply
kratos453 10 Dec 02, 2006 08:32 AM

This is the only tab I've found that is decent and sounds just like Wolfmother, great job ^.^

0 reply
burningaprilman 41 Dec 02, 2006 12:53 PM

thanks
i saw them in concert and this is pretty much how he plays

0 reply
dudeman6(sic)6 10 May 10, 2007 06:11 PM

close, in the intro he plays the same thing on the b as on the e so its 13-11-10 on the b, istead of goin lower on the fret board, also if your not fast enough the switch to the second power cord, you and just make the formation at the sixth fret

hope that helps

guest
You may want to rate the tab now too:
select rating
Wanna post a correction for this tab? Suggest correction