Oops, an error
Loading. Please wait.

Pyramid tab

version 4
version 4

Whole song

Interactive

467 views 1 this week
no commentswrite comment
1 2 3 4 5
1 last vote to show rating
add to favorites
×
Save as Personal and add changes to this tab that will be seen only by you. Learn more ›
×
You can save this tab as Personal to edit and correct it or add notes. All changes will be seen only by you. Learn more »
launch autoscroll
font size
0
reset
how to read this tab
guitar tuner
edit
Autoscroll
slow
fast
+/-
esc
set tempo
stop
Artist= Wolfmother
Song= Pyramid
Album= Wolfmother

This song is fairly easy. If you have a Marshall MG30DFX (That’s what I use) you can get 
great Wolfmother tone. It’s down below. Good Luck and have fun.
Any questions? E-mail me at big_al_210@yahoo.com. This is my first tab, so don’t send me 
nasty comments. :)

Tone:
Gain- 10
Bass- 6 or 4   }
Contour- 6      } Which ever you think sounds better.
Treble- 4 or 6 }
Reverb- 2

Key:
W- whole note      |    }
H- half note       |.    }
Q- quarter note    |      } Repeat
E- eighth note     |.     } Sign
S- sixteenth note  |     }
3- triplet         |    }
.- dotted note
b- bend
r- release bend    X2- repeat twice
h- hammer on	 X3- repeat 3 times
p- pull off		 X4- repeat 4 times
- - - - - = tie    ~ - vibrato
(- slide down
'- slide up

Tempo= 140
Time signature= 4/4

Intro Riff                       (Keep bending as far as you can without                 
                        breaking the string for 6 measures,
                                  then hold it)
  W               W                W
|---------------|---------------|------------------------------------------|
|---------------|---------------|------------------------------------------|
|---------------|---------------|------------------------------------------|
|---------------|---------------|------------------------------------------|
|---------------|---------------|------------------------------------------|
|-1~~~~~~~~~~~--|-1~~~~~~~~~~~--|--3b~~~~~~~~~~~~~~~~~~~~~~~~~~~~~---------|


|-8-------------------------------------------|
|-measure-------------------------------------|
|-rest----------------------------------------|
|---------------------------------------------|
|---------------------------------------------|
|---------------------------------------------|


Intro Riff 2

  H	    H		  W	     H     Q     Q	 Q   Q   Q   Q
|-13------11------|-10-----|-13----11----10----|----------------|
|-----------------|--------|-------------------|-13—-11–-10–-11-|
|-----------------|--------|-------------------|----------------|
|-----------------|--------|-------------------|----------------|
|-----------------|--------|-------------------|----------------|
|-----------------|--------|-------------------|----------------|


  W		E   E   .H - - -W               E   E   .H - - -W
|---------|---------------|---------------|---------------|---------------|
|-10------|-10--11–-13----|-13------------|-10–-11–-13----|-13------------|
|---------|---------------|---------------|---------------|---------------|
|---------|---------------|---------------|---------------|---------------|
|---------|---------------|---------------|---------------|---------------|
|---------|---------------|---------------|---------------|---------------|

  E    E    .H - - - W               E    E    .H - - - W
|------------------|---------------|------------------|---------------|
|-10–--11––-13-----|-13------------|-10-–-11--–13-----|-13------------|
|------------------|---------------|------------------|---------------|
|------------------|---------------|------------------|---------------|
|------------------|---------------|------------------|---------------|
|------------------|---------------|------------------|---------------|

  H      H        W           H      Q     Q       Q    Q    Q    Q
|-13-----11-----|-10--------|-13-----11----10----|-------------------------|
|---------------|-----------|--------------------|-13---11---10---11(------|
|---------------|-----------|--------------------|-------------------------|
|---------------|-----------|--------------------|-------------------------|
|---------------|-----------|--------------------|-------------------------|
|---------------|-----------|--------------------|-------------------------|

Riff 1

   E   E   E   E   E   E   E   E       E   E   E   E   E   .Q     X4 E
| ---------------------------------|------------------------------ |------|
|.---------------------------------|------------------------------.|------|
| ---------------------------------|------------------------------ |------|
|.---------------------------------|------------------------------.|------|
| ---------------------------------|------------------------------ |------|
| -3---0---3---0---3---0---3---0---|---3---0---3---0---3---6b8---- |-3----|


|-7---------------------------------------|
|-measure---------------------------------|
|-rest------------------------------------|
|-----------------------------------------|
|-----------------------------------------|
|-----------------------------------------|

    E   E   E   E   E   E   E   E      E   E   E   E   E   .Q   X2
| -------------------------------------------------------------- |
|.--------------------------------------------------------------.|
| -------------------------------------------------------------- |
|.--------------------------------------------------------------.|
| -------------------------------------------------------------- |
| --3---0---3---0---3---0---3---0------3---0---3---0---3---6b8–- |


Riff 2
                                      Q     X4
| --------------------|--------------------- |
|.--------------------|---------------------.|
| --------------------|--------------------- |
|.--------------------|---------------------.|
| --------------------|--------------------- |
| --------------------|---------------6b8—-- |


  H	    H		  W	     H     Q     Q	 Q   Q   Q   Q
|-13------11------|-10-----|-13----11----10----|----------------|
|-----------------|--------|-------------------|-13—-11–-10–-11-|
|-----------------|--------|-------------------|----------------|
|-----------------|--------|-------------------|----------------|
|-----------------|--------|-------------------|----------------|
|-----------------|--------|-------------------|----------------|


  W		E   E   .H - - -W               E   E   .H - - -W
|---------|---------------|---------------|---------------|---------------|
|-10------|-10--11–-13----|-13------------|-10–-11–-13----|-13------------|
|---------|---------------|---------------|---------------|---------------|
|---------|---------------|---------------|---------------|---------------|
|---------|---------------|---------------|---------------|---------------|
|---------|---------------|---------------|---------------|---------------|

  E    E    .H - - - W               E    E    .H - - - W
|------------------|---------------|------------------|---------------|
|-10–--11––-13-----|-13------------|-10-–-11--–13-----|-13------------|
|------------------|---------------|------------------|---------------|
|------------------|---------------|------------------|---------------|
|------------------|---------------|------------------|---------------|
|------------------|---------------|------------------|---------------|

  H      H        W           H      Q     Q       Q    Q    Q    Q
|-13-----11-----|-10--------|-13-----11----10----|-------------------------|
|---------------|-----------|--------------------|-13---11---10---11(------|
|---------------|-----------|--------------------|-------------------------|
|---------------|-----------|--------------------|-------------------------|
|---------------|-----------|--------------------|-------------------------|
|---------------|-----------|--------------------|-------------------------|

Riff 3

   E   E   E   E   E   E   E   E       E   E   E   E   3 3 3  Q          X4
| ---------------------------------|------------------------------------- |
|.---------------------------------|-------------------------------------.|
| ---------------------------------|------------------------------------- |
|.---------------------------------|-------------------------------------.|
| ---------------------------------|-------------------3p1---1----------- |
| -3---0---3---0---3---0---3---0---|---3---0---3---0–------3------------- |




  Q    Q    Q    Q        Q    Q   3 3 3   E  E
|---------------------|-------------------------------|
|---------------------|-------------------------------|
|---------------------|-------------------------------|
|---------------------|-------------5p3----3----------|
|-5----5----5----5----|----5----5-------5-----5-------|
|---------------------|-------------------------------|

  Q    Q    Q    Q       3 3 3 3 3 3 3 3 3 3 3 3
|---------------------|-------------------------------|
|---------------------|-------------------------------|
|---------------------|-------------------------------|
|---------------------|--5-3---3----------------------|
|-3----3----3----3----|------5---5-3-5-3-1-3-0-1------|
|---------------------|-------------------------------|

Chorus

   W - - - - - -W            W - - - - - -W          X2
| ------------|------------|------------|------------ |
|.------------|------------|------------|------------.|
| ------------|------------|------------|------------ |
|.-5----------|-5----------|-3----------|-3----------.|
| -5----------|-5----------|-3----------|-3---------- |
| -3----------|-3----------|-1----------|-1---------- |

  W - - - - - -W            W - - - - - -W
|------------|------------|------------|------------|
|------------|------------|------------|------------|
|-3----------|-3----------|-5----------|-5----------|
|-3----------|-3----------|-5----------|-5----------|
|-1----------|-1----------|-3----------|-3----------|
|------------|------------|------------|------------|

   W - - - - - -W            W - - - - - -W          X2
| ------------|------------|------------|------------ |
|.------------|------------|------------|------------.|
| ------------|------------|------------|------------ |
|.-5----------|-5----------|-3----------|-3----------.|
| -5----------|-5----------|-3----------|-3---------- |
| -3----------|-3----------|-1----------|-1---------- |

Guitar Solo

 Q     E   E   E   E   E   E     Q      Q      3 3 3   E   E
|------------------------------|----------------------------------|
|------------------------------|----------------------------------|
|------------------0---3---5---|-5b7----5b7----5-3-----3----------|
|-5----0---3---5---------------|-------------------5-------5------|
|------------------------------|----------------------------------|
|------------------------------|----------------------------------|

  Q    E   E   E   E   E   E     Q    Q    Q    Q
|------------------------------|---------------------|
|--------------------------6---|-8----8----8----8----|
|--------------3---5---7-------|---------------------|
|-5----3---5-------------------|---------------------|
|------------------------------|---------------------|
|------------------------------|---------------------|
   3 3 3 3 3 3 3 3 3 3 3 3  X2 3 3 3 3 3 3 3 3 3 3 3 3
| -----6-----6-----6-----6-- |-8p6---6-------------------|
|.-6h8---6h8---6h8---6h8----.|-----8---8p6h8p6---6-------|
| -------------------------- |-----------------7---7p5---|
|.--------------------------.|---------------------------|
| -------------------------- |---------------------------|
| -------------------------- |---------------------------|

  3 3 3 3 3 3 3 3 3 3 3 3    W                H      E   E   E   E
|--------------------------|--------------|-------------------------|
|--------------------------|--------------|-------------------------|
|-7-5-3-5-3---3-------3-5--|-5b7----------|-5b7r5--------3----------|
|-----------5---5-3-5------|--------------|----------5-------5---3--|
|--------------------------|--------------|-------------------------|
|--------------------------|--------------|-------------------------|

  H    E   E   E   E     E   E    Q    Q    Q      W
|----------------------|--------------------6----|-8b10----------|
|----------------------|-----6----8----8---------|---------------|
|--------------3---5---|-7-----------------------|---------------|
|-5----3---5-----------|-------------------------|---------------|
|----------------------|-------------------------|---------------|
|----------------------|-------------------------|---------------|

  H         .Q  S  S     .H    Q       W
|-8b10------10--8--6---|-------6-----|-8b10~~~~~~~~--|
|----------------------|-8-----------|---------------|
|----------------------|-------------|---------------|
|----------------------|-------------|---------------|
|----------------------|-------------|---------------|
|----------------------|-------------|---------------|


|-8-------------------------|
|-measure-------------------|
|-rest----------------------|
|---------------------------|
|---------------------------|
|---------------------------|

  E   E   E   E   E   E   E   E       E   E   E   E   E   .Q      X4
| ---------------------------------|------------------------------ |
|.---------------------------------|------------------------------.|
| ---------------------------------|------------------------------ |
|.---------------------------------|------------------------------.|
| ---------------------------------|------------------------------ |
| -3---0---3---0---3---0---3---0---|---3---0---3---0---3---6b8---- |

                                      Q     X4
| --------------------|--------------------- |
|.--------------------|---------------------.|
| --------------------|--------------------- |
|.--------------------|---------------------.|
| --------------------|--------------------- |
| --------------------|---------------6b8—-- |


  H       H         W             H       Q     Q       Q    Q    Q    Q
|-13------11------|-10----------|-13------11----10----|---------------------|
|-----------------|-------------|---------------------|-13---11---10---11(--|
|-----------------|-------------|---------------------|---------------------|
|-----------------|-------------|---------------------|---------------------|
|-----------------|-------------|---------------------|---------------------|
|-----------------|-------------|---------------------|---------------------|

   E   E   E   E   E   E   E   E       E   E   E   E   3 3 3  Q          X4
| ---------------------------------|------------------------------------- |
|.---------------------------------|-------------------------------------.|
| ---------------------------------|------------------------------------- |
|.---------------------------------|-------------------------------------.|
| ---------------------------------|-------------------3p1---1----------- |
| -3---0---3---0---3---0---3---0---|---3---0---3---0–------3------------- |

  Q    Q    Q    Q        Q    Q   3 3 3   E  E         Q    Q    Q    Q
|---------------------|-------------------------------|---------------------|
|---------------------|-------------------------------|---------------------|
|---------------------|-------------------------------|---------------------|
|---------------------|-------------5p3----3----------|---------------------|
|-5----5----5----5----|----5----5-------5-----5-------|-3----3----3----3----|
|---------------------|-------------------------------|---------------------|

   3 3 3 3 3 3 3 3 3 3 3 3     H
| -------------------------- |----------|
|.--------------------------.|----------|
| -------------------------- |----------|
|.-5-3---3------------------.|----------|
| -----5---5-3-5-3-1-3-0-1–- |----------|
| -------------------------- |-3(-------|


THE END

Once again, this is my first tab. If you have any questions or comments, e-mail me at big_al_210@yahoo.com.
Suggest correction
Creating personal tab
Creating personal tab
You can edit any tab online and save it as your Personal.

You can edit, replace or remove any tab part or add personal notes – all changes will be seen only by you.

Personal tabs can be accessed anytime from any device, even offline.
Learn more »
Give kudos to tab author, rate the tab!
1 2 3 4 5
comments
print report bad tab
guest
You may want to rate the tab now too:
select rating
Wanna post a correction for this tab? Suggest correction