Oops, an error
Loading. Please wait.

Sundial Tab

version 1
version 1

Whole song

Interactive

28,204 views 6 this week
4 commentsread comments
1 2 3 4 5
x 8
add to favorites
launch autoscroll
font size
0
reset
how to read this tab
guitar tuner
Autoscroll
slow
fast
+/-
esc
set tempo
stop
Help us to improve Ultimate-Guitar.com Take our survey!
×
Author
Difficulty
intermediate
[Intro/Verse]
With wah. 
e|---------------------------------|---------------------------------|
B|---------------------------------|---------------------------------|
G|---------------------------------|---------------------------------|
D|---------5b-----------5b---------|---------------------------------|
A|----5h7------7---5h7------7--5h7-|5----5--------------------x------|
E|0--------------------------------|--h7---h7--7p5-3p0--3--3--x-0-2--|

(Variation)
e|------------------------------------|---------------------------------|
B|------------------------------------|---------------------------------|
G|------------------------------------|---------------------------------|
D|---------5b-----------7b(9)--7------|---------------------------------|
A|----5h7------7---5h7------------5h7-|5----5--------------------x------|
E|0-----------------------------------|--h7---h7--7p5-3p0--3--3--x-0-2--|

[Chorus]
  E             D     G           D    C             A           B 
e|-------------|----------------------|-------------|-----------------|
B|-------------|------12-12---12------|-------------|-----------------|
G|-------------|------12-12---12------|-------------|-----------------|
D|14-----------|12----12-12---12--12--|10-----------|7------7----9----|
A|14-----------|12----10-10---10--12--|10-----------|7------7----9----|
E|12-----------|10----------------10--|8------------|5------5----7----|

[Bridge/Outro] 
e|--------------------------------------|
B|--------------------------------------|
G|--------------------------------------|
D|-----5------6------7-------8-------9--|
A|5h7----6h8----7h9----8h10----9h11-----|
E|--------------------------------------|

[Solo]   
e|--------------------------|----------------------------------------|
B|--------------------------|----------------------------------------|
G|--------------------------|-----------------------------7----------|
D|7b(9)r7-------7b(9)-7-5---|5----------------5h7-7b(9)-----b(9)r7-5-|
A|------------------------7-|--7--7v-7v---5h7------------------------|
E|--------------------------|----------------------------------------|
  slowly release                                     hold bend

e|---------------------------------|------------------------------------|
B|---------------------------------|------------------------------------|
G|-------------------------------7-|--------------------7---------------|
D|7v---5---------------5-7b(9)-----|7b(9)----7-5-7b(9)-----7b(9)r7/17---|
A|---------7---7---5h7-------------|------------------------------------|
E|---------------------------------|------------------------------------|

e|17b(19)r17--15---15-17b(19)---|---17b(19)-17-15----15---------------------|
B|------------------------------|-----------------17----17-17v--17v--17b(20)|
G|------------------------------|-------------------------------------------|
D|------------------------------|-------------------------------------------|
A|------------------------------|-------------------------------------------|
E|------------------------------|-------------------------------------------|

e|----------------------------|---------------------------|
B|----15h17p15----15\8--------|15-17-17b(20)r(19)r17---17-|
G|-------------16--------9/16-|---------------------------|
D|----------------------------|---------------------------|
A|----------------------------|---------------------------|
E|----------------------------|---------------------------|

e|------------15--------------17b(19)--15--------|
B|17---15h17------17---15h17---------------15h17-|
G|-----------------------------------------------|
D|-----------------------------------------------|
A|-----------------------------------------------|
E|-----------------------------------------------|

e|------------------------------------------------|
B|15----15----------------------------------------|
G|---16----16-14p12----12-------------------12\---|
D|------------------14----14v---14v---12h14-------|
A|------------------------------------------------|
E|------------------------------------------------|

e|----------15--------------17b(19)---17-15------|
B|/17-15h17------17---15h17-----------------17---|
G|-----------------------------------------------|
D|-----------------------------------------------|
A|-----------------------------------------------|
E|-----------------------------------------------|

e|----------------------------------------------------------------|
B|17v---17p15-----15----------------------------------------------|
G|------------h16----h16-h14-16p14\12-14p12-----12b---------------|
D|------------------------------------------h14-------14v---14\---|
A|----------------------------------------------------------------|
E|----------------------------------------------------------------|

e|---------15--------17b(19)---15-15-17b(17)---15-15-|
B|---15h17------17-----------------------------------|
G|---------------------------------------------------|
D|---------------------------------------------------|
A|---------------------------------------------------|
E|---------------------------------------------------|

e|15b(17)---15-15-17b(19)---15-15-17p15-----15--------------------|
B|--------------------------------------h17----h17p15-17v---17\---|
G|----------------------------------------------------------------|
D|----------------------------------------------------------------|
A|----------------------------------------------------------------|
E|----------------------------------------------------------------|

e|---------------15--------17b(19)---17-17b(19)---|
B|---17-17-15h17------17--------------------------|
G|------------------------------------------------|
D|------------------------------------------------|
A|------------------------------------------------|
E|------------------------------------------------|

e|17b(19)b(20)r17------------|
B|---------------------------|
G|---------------------------|
D|---------------------------|
A|---------------------------|
E|---------------------------|
  (slowly bend and release)

[End]
  E
e|-------------|
B|-------------|
G|9------------|
D|9------------|
A|7------------|
E|0------------|
Suggest correction
comments
print report bad tab
4 comments total. Showing first comments.
+4 reply
Jtang 51 Nov 02, 2009 09:47 PM

|-----------------------------------------------------------------|
|-----------------------------------------------------------------|
|-----------------------------------------------------------------|
|----------5-----------5------------------------------------------|
|------5h7----7----5h7----7---5h7p5---5---------------------------|
|--0--------------------------------7---7--7p5--3--5--3-3--x--0--2|

+1 reply
danleary 843 Nov 04, 2009 08:38 PM

Agreed, thanks Jtang.

0 reply
guitar_hero911 10 Nov 07, 2009 01:58 PM

Thanks

guest
You may want to rate the tab now too:
select rating
Wanna post a correction for this tab? Suggest correction