Oops, an error
Loading. Please wait.

The Love That You Give tab

1,291 views 24 this week
4 commentsread comments
1 2 3 4 5
x 7
add to favorites
×
Save as Personal and add changes to this tab that will be seen only by you. Learn more ›
×
You can save this tab as Personal to edit and correct it or add notes. All changes will be seen only by you. Learn more »
launch autoscroll
font size
0
reset
how to read this tab
guitar tuner
edit
Autoscroll
slow
fast
+/-
esc
set tempo
stop
Author
Difficulty
Artist : Wolfmother
Song : The Love That You Give
Tabbed by : Dave Tran
instagram : davetran
email : davetran01@gmail.com
Tuning Standard

[Main Riff]
e|-------------------------------|--------------------------|
B|-------------------------------|--------------------------|
G|-------------------------------|--------------------------|
D|-------------------------------|--------------------------|
A|-------------------------------|----------8---10---8------|
E|-8h10-10-10--10-8h10-10-10--10-|-8---10----------------10-|


[Verse Riff 1]
e|---------------------------------|       e|--------------------------|
B|---------------------------------|       B|--------------------------|
G|---------------------------------|       G|--------------------------|
D|---------------------------------|       D|--------------------------|
A|-10/12-12-12--10-10h12-12-12--12-|       A|----------8---10---8------|
E|--8/10-10-10--10--8h10-10-10--10-|  x3   E|-8---10----------------10-|

[Verse Riff 2]
e|-------------------------------------|-------------------------------------|
B|-------------------------------------|-------------------------------------|
G|-------------------------------------|-------------------------------------|
D|-12-12-12-12-12-12-12-12-12-12-12-12-|-12-12-12-12-12-12-12-12-12-12-12-12-|
A|-10-10-10-10-10-10-10-10-10-10-10-10-|-10-10-10-10-10-10-10-10-10-10-10-10-|
E|-------------------------------------|-------------------------------------|

e|-------------------------------------|-------------------------------------|
B|-------------------------------------|-------------------------------------|
G|-------------------------------------|-------------------------------------|
D|-10-10-10-10-10-10-10-10-10-10-10-10-|-14-14-14-14-14-14-14-14-14-14-14-14-|
A|--8--8--8--8--8--8--8--8--8--8--8--8-|-12-12-12-12-12-12-12-12-12-12-12-12-|
E|-------------------------------------|-------------------------------------|


[Chorus Riff]
e|--------------|--------------|--------------|--------------|
B|--------------|--------------|--------------|--------------|
G|-7-7-7-7------|-5-5-5-5------|-8-8-8-8------|-5-5-5-5------|
D|-7-7-7-7------|-5-5-5-5------|-8-8-8-8------|-5-5-5-5------|
A|-5-5-5-5------|-3-3-3-3------|-6-6-6-6------|-3-3-3-3------|
E|--------------|--------------|--------------|--------------|


---SONG STRUCTURE---
[Main Riff] x 4
[Verse Riff 1] x 2
[Verse Riff 2]
[Main Riff] x 2
[Verse Riff 1] x 2
[Verse Riff 2]
[Chorus Riff] x 2
[Main Riff] x 2
[Verse Riff ]1
[Verse Riff 2]
[Chorus Riff] x 2
[Main Riff] x 2
[Verse Riff 1] x 2
[Verse Riff 2]
[Chorus Riff] x 2
=


************************************

| /   slide up
| \   slide down
| h   hammer-on
| p   pull-off
| ~   vibrato
| +   harmonic
| x   Mute note
| b   Bend
| pb  Pre-bend
| br  Bend release
| pbr Pre-bend release
| brb Bend release bend

************************************

            
            
Suggest correction
Creating personal tab
Creating personal tab
You can edit any tab online and save it as your Personal.

You can edit, replace or remove any tab part or add personal notes – all changes will be seen only by you.

Personal tabs can be accessed anytime from any device, even offline.
Learn more »
comments
print report bad tab
4 comments total. Showing first comments.
+1 reply
Fu-Manchu 10 Feb 13, 2016 02:16 PM, edited at 07:24 pm

Hey.I think you should go over this tab again. The Verse Riff is played with Chords, not single notes. The Verse Riff 2 is also Wrong. Its supposed to be played with chords on the 8th and 10th fret, then 6th and 8th and after that 10th and 12th (e and a string). So basically move the Riff up five frets and play it whit Chords. There is a video on Adrews Facebook page where he is demoing this song. Maybe you just put it into the wrong line by accident. Not trying to hate but thats what I see/hear.

0 reply
Fu-Manchu 10 Feb 15, 2016 12:38 PM

Now Perfect. Thank you :)

0 reply
MrMojeYo 20 Apr 25, 2016 06:41 AM

The chorus riff is still wrong. Instead of the 5-5-3 in the end it is a 7-7-5 again! Cheers :)

guest
You may want to rate the tab now too:
select rating
Wanna post a correction for this tab? Suggest correction