Oops, an error
Loading. Please wait.

Vagabond bass

5,537 views 1 this week
no commentswrite comment
1 2 3 4 5
1 last vote to show rating
add to favorites
×
Save as Personal and add changes to this tab that will be seen only by you. Learn more ›
×
You can save this tab as Personal to edit and correct it or add notes. All changes will be seen only by you. Learn more »
launch autoscroll
font size
0
reset
guitar tuner
edit
Autoscroll
slow
fast
+/-
esc
set tempo
stop
Author
Difficulty
Vagabond by Wolfmother - EADG
Rest during the First Verse

Interlude
G--------------------12h14--12h14-|  |-------------------10h12--10h12-|
D--------------12h14--------------|  |-------------10h12--------------|
A-/12-12-12-12--------------------|x2|-10-10-10-10--------------------|x2
E---------------------------------|  |--------------------------------|
   A                                   G
|--------------------------------|  |-------------------12h14--12h14-|
|-------------------10h12--10h12-|  |-------------12h14--------------|
|-------------10h12--------------|x2|-12-12-12-12--------------------|x2
|-10-10-10-10--------------------|  |--------------------------------|
  D                                   A    

Second Verse
G-------------------12h14--12h14-|  |-------------------10h12--10h12-|
D-------------12h14--------------|  |-------------10h12--------------|
A-12-12-12-12--------------------|x4|-10-10-10-10--------------------|x1
E--------------------------------|  |--------------------------------|
  A                                   G
|--------------------------------|  
|-------------------10h12--10h12-|  
|-------------10h12--------------|x1
|-10-10-10-10--------------------|  
  D

Interlude 2
G--------------------12h14--12h14-|  |-------------------10h12--10h12-|
D--------------12h14--------------|  |-------------10h12--------------|
A-/12-12-12-12--------------------|x2|-10-10-10-10--------------------|x2
E---------------------------------|  |--------------------------------|
   A                                   G
|--------------------------------|  |----------------------------|
|-------------------10h12--10h12-|  |---------------8h10--8h10---|
|-------------10h12--------------|x2|----------8h10--------------|x1
|-10-10-10-10--------------------|  |-8-8-8-8--------------------|
  D                                   C
|-----------------------------------|
|-------------------10h12--10h12----|
|-------------10h12-----------------|
|-10-10-10-10--------------------5--|
  D                              A

No bass in the Last Verse or Outro

            
            
Suggest correction
Creating personal tab
Creating personal tab
You can edit any tab online and save it as your Personal.

You can edit, replace or remove any tab part or add personal notes – all changes will be seen only by you.

Personal tabs can be accessed anytime from any device, even offline.
Learn more »
Give kudos to tab author, rate the tab!
1 2 3 4 5
comments
print report bad tab
guest
You may want to rate the tab now too:
select rating
Wanna post a correction for this tab? Suggest correction