Oops, an error
Loading. Please wait.

Vagabond tab

version 1
version 1

Whole song

66,966 views 6 this week
7 commentsread comments
1 2 3 4 5
x 11
add to favorites
×
Save as Personal and add changes to this tab that will be seen only by you. Learn more ›
×
You can save this tab as Personal to edit and correct it or add notes. All changes will be seen only by you. Learn more »
launch autoscroll
font size
0
reset
how to read this tab
guitar tuner
edit
Autoscroll
slow
fast
+/-
esc
set tempo
stop
Author
Difficulty
Band: Wolfmother
Song: Vagabond
Album: Wolfmother
Email: chewie_rules100@hotmail.com

| /  slide up
| \  slide down
| h  hammer-on
| p  pull-off
| ~  vibrato
| +  harmonic
| x  Mute note

Intro 
guitar 1 (acoustic)
e----------------------------------------------------------|
B-----------------------------2---5-3-2------2-------------|
G--------------------------2--2-2---------2--2-2-4p2-----2-|
D-drumming and keyboard----2--2-2---------2--2-2-------2-2-|
A------------------------0-0--0-0-------0-0--0-0-----0-0-0-|
E----------------------------------------------------------|

Verse (the above riff)

Chorus ("I'll tell you everything...")
e---3--3-3-------------2---3p2-0-2-2-------------------------------------|
B---3--3-3----3---3----3-3-3---3-3-3-------2---5-3-2------2--------------|
G---0--0------0---0----2-2-2---2-2-2----2--2-2---------2--2-2-4p2------2-|
D---0--0----0-0-0-0--0-0-0-0-----0-0----2--2-2---------2--2-2--------2-2-|x2
A-2-2-------2-2-2-2-------------------0-0--0-0-------0-0--0-0------0-0-0-|
E-3-3-------3-3-3-3------------------------------------------------------|

Verse (with electric)

Chorus (with electric)

Verse (heavy electric and keyboard)

Chorus (heavy electric and keyboard)

Outro (no guitar)

thats all folks
www.freewebs.com/ryan_leahy



            
            
Suggest correction
Creating personal tab
Creating personal tab
You can edit any tab online and save it as your Personal.

You can edit, replace or remove any tab part or add personal notes – all changes will be seen only by you.

Personal tabs can be accessed anytime from any device, even offline.
Learn more »
comments
print report bad tab
7 comments total. Showing first comments.
+1 reply
diego224 10 Aug 22, 2006 02:02 PM

i think the first part is somthing like this


Intro
guitar 1 (acoustic)
e---------------------------------------------------------------|
B-----------------------------2-------3-2---------2-------------|
G--------------------------2--2-2---2----2---2--2-2-4p2--2----2-|
D-drumming and keyboard----2--2-2-2----------2--2-2----2----2-2-|
A------------------------0-0--0-0----------0-0--0-0-----0---0-0-|
E---------------------------------------------------------------|

+1 reply
dk_rulz 10 Jan 27, 2007 06:01 PM

i reckon this tab is completely wrong and it should be like this (this is just my opinion)

e------0--------------------0------------------------|
B------2--2--------3--2-----2--2-----0h2-------------|
G------2-----2--------------2-----2----------0h2-----|
D------2--------------------2-------------2----------|
A---0--0-----------------0--0------------------------|
E----------------------------------------------------|

e------3--------------------2--2-----3p2--0----------|
B------0--0-----3--1--0-----3-----3----------3-------|
G------0-----0--------------2------------------------|
D------0-----------------0--0------------------------|
A------2---------------------------------------------|
E---3--3---------------------------------------------|

e------0--------------------0------------------------|
B------2--2--------3--2-----2--2-----0h2-------------|
G------2-----2--------------2-----2----------0h2-----|
D------2--------------------2-------------2----------|
A---0--0-----------------0--0------------------------|
E----------------------------------------------------|

0 reply
dk_rulz 10 Jan 27, 2007 06:03 PM

by the way that is just the verse and the chorus is completely wrong

guest
You may want to rate the tab now too:
select rating
Wanna post a correction for this tab? Suggest correction