Oops, an error
Loading. Please wait.

Victorious tab

version 2
version 2

Whole song

1,039 views 3 this week
4 commentsread comments
1 2 3 4 5
x 3
add to favorites
×
Save as Personal and add changes to this tab that will be seen only by you. Learn more ›
×
You can save this tab as Personal to edit and correct it or add notes. All changes will be seen only by you. Learn more »
launch autoscroll
font size
0
reset
how to read this tab
guitar tuner
edit
Autoscroll
slow
fast
+/-
esc
set tempo
stop
Author
-------------------------------------------------------------------------------
                             Victorious - Wolfmother
-------------------------------------------------------------------------------
Tabbed by: Vrusciante
E-mail: vrusciante@yahoo.com.br

Tuning:E Standard

I tabbed this based on the video, wich shows his hands a lot. should be accurate for the most part

Verse
     {Palm Mute         }  {Palm Mute         }                       {P.M.}
e|---------------------------------------------------------------------------|
B|---------------------------------------------------------------------------|
G|-----------------------------------------------------------------------1---|
D|-----------------------------------------------------------------------2---|
A|-----------------------------------------------------------------------2---|
E|-12-0-0-0-0-0--0-0-0-0-10-0-0-0-0-0--0-0-0-0-9h10-9-9h10-9-9h10-9-3--------|

______________________________________________________________________________________________

Chorus

  Repeat 3x[
    Let ring all notes
e|----------------------------------|
B|-----------------2----------------|
G|-----------------2-------1--------|
D|-9-------7-------2-------2--------|
A|-7-------5-------4-------2--------|
E|----------------------------------|
]
  then
e|------------------------------------------|
B|------------------2-2-2-2-2-2-------------|
G|------------------2-2-2-2-2-2-1-----------|
D|--9-------7-------2-2-2-2-2-2-2-----------|
A|--7-------5-------4-5-4-5-4-5-2-----------|
E|------------------------------------------|

______________________________________________________________________________________________

Interlude
   Acoustic guitar

 "Don't you ever get tired" "and feel like giving up"
                               (strum)           (strum)
e|-----------------2------------2-2-----------------------------|
B|-----------------3------------3-3-2-------------2-2-----------|
G|-1-1-----------1-2------------2-2-2-------------2-2-1---------|
D|-2-2-----------2------------------2-------------2-2-2---------|
A|-2-2-----------2------------------------------------2---------|
E|--------------------------------------------------------------|

______________________________________________________________________________________________

Solo
 Repeat 3x[
  [---PALM MUTE---]
e|-----------------------------------------------------------------------------|
B|-----------------------------------------------------------------------------|
G|-------------------------------------12--------------------------------------|
D|----------------------------12h13h14-----------------------------------------|
A|-------------------12h13h14--------------------------------------------------|
E|-0-0-0-0-0-0-0-0-------------------------------------------------------------|
   ]
 then
  [---PALM MUTE---]
e|-----------------------------------------------------------------------------|
B|-----------------------------------------------------------------------------|
G|------------------11h12p11----11---------------------------------------------|
D|---------------------------12----12-14--14-----------------------------------|
A|-----------------------------------------------------------------------------|
E|-0-0-0-0-0-0-0-0-------------------------------------------------------------|


______________________________________________________________________________________________

Outro
      {Palm Mute         }  {Palm Mute         } 
e|---------------------------------------------------------------------------|
B|---------------------------------------------------------------------------|
G|---------------------------------------------------------------------------|
D|---------------------------------------------------------------------------|
A|---------------------------------------------------------------------------|
E|-12-0-0-0-0-0--0-0-0-0-10-0-0-0-0-0--0-0-0-0-9h10-9-9h10-9-9h10-9-3--------|

e|---------------------------------------------------------------------------|
B|---------------------------------------------------------------------------|
G|--------------------------------------------------------1------------------|
D|--------------------------------------------------------2------------------|
A|--------------------------------------------------------2------------------|
E|-9h10-9-9h10-9-9h10-9-3-----9h10-9-9h10-9-9h10-9-3-------------------------|


************************************

| h   hammer-on
| p   pull-off
| X   Mute note

************************************
Suggest correction
Creating personal tab
Creating personal tab
You can edit any tab online and save it as your Personal.

You can edit, replace or remove any tab part or add personal notes – all changes will be seen only by you.

Personal tabs can be accessed anytime from any device, even offline.
Learn more »
Give kudos to tab author, rate the tab!
1 2 3 4 5
comments
print report bad tab
4 comments total. Showing first comments.
0 reply
lego_alien 188 Mar 08, 2016 05:17 AM

There are a lot mistakes.
The verse isn't with fully muted strings but open string palm muted.
Also Chorus isn't correct, A/B chord is not used, it's just A chord (the third chord used).
Solo isn't correct either it's just a ladder of hammer ons between two notes on several strings (the most of it), the variation isn't correct either.
What correct is, is that the solo is an octave higher (starting from the 12th fret)

guest
You may want to rate the tab now too:
select rating
Wanna post a correction for this tab? Suggest correction