Oops, an error
Loading. Please wait.

Where Eagles Have Been solo tab

version 1
version 1

Solo

Whole song

Interactive

4,651 views 1 this week
4 commentsread comments
1 2 3 4 5
x 7
add to favorites
×
Save as Personal and add changes to this tab that will be seen only by you. Learn more ›
×
You can save this tab as Personal to edit and correct it or add notes. All changes will be seen only by you. Learn more »
launch autoscroll
font size
0
reset
how to read this tab
guitar tuner
edit
Autoscroll
slow
fast
+/-
esc
set tempo
stop
Difficulty
Where eagles have been
there was no solo tab so here it is
B=bend
RB=release bend

tabbed by wolfspad
E-----------------------------------------------------------10--|
B---------------------------------------------------10---13-----|
G-------------------------------10------10-----12---------------|
D---------------------10--12---------12-------------------------|
A-----------10---12---------------------------------------------|
e-10---13-------------------------------------------------------|

E-13-10-13-10-15-15B-17B--17B--17B--17B--17B--15RB-13---------13-|
B-----------------------------------------------------15--15-----|
G----------------------------------------------------------------|
D----------------------------------------------------------------|
A----------------------------------------------------------------|
e----------------------------------------------------------------|

E-----------------------------------------------------------------|
B-15--15--15--15-15-15--15-13-11-13-11----11----------------------|
G--------------------------------------12----12-10-12-10----10----|
D--------------------------------------------------------12----12-|
A-----------------------------------------------------------------|
e-----------------------------------------------------------------|

E---------------------------------------------------------15B-17--|B
B-----------------------------------------------------15----------|
G-----------------------------------------------------------------|
D-10-12--10----10-------------------------------------------------|
A-----------12----12-10-12-10----10-------------------------------|
e-----------------------------13----13-10-13-10-8-----------------|


E-17B--17B--17B--17B--15RB-13-------------------------------------|
B----------------------------15-13-15-13-15-13----13--------------|
G----------------------------------------------14----14-12-14--12-|
D-----------------------------------------------------------------|
A-----------------------------------------------------------------|
e-----------------------------------------------------------------|


E-------------------------------------------------------------------------|
B-------------------------------------------------------------------------|
G-------------------------------------------------------------------------|
D---------5-7-5-----------5-7-5-------------8-10-8--------------8-10-8----|
A-----5-7-------7-----5-7-------7------8-10--------10------8-10--------10-|
e-5-7-------------5-7-------------8-11----------------8-11----------------|

  D             c
E-5-5-5-5-5-5-5-3-5-5-5-5-5-5-5-3-5-5-5-5-5-5-5-3-5-5-5-5-5-5-5-3-|
B-7-7-7-7-7-7-7-5-7-7-7-7-7-7-7-5-7-7-7-7-7-7-7-5-7-7-7-7-7-7-7-5-|
G-7-7-7-7-7-7-7-5-7-7-7-7-7-7-7-5-7-7-7-7-7-7-7-5-7-7-7-7-7-7-7-5-|
D-7-7-7-7-7-7-7-5-7-7-7-7-7-7-7-5-7-7-7-7-7-7-7-5-7-7-7-7-7-7-7-5-|
A-5-5-5-5-5-5-5-3-5-5-5-5-5-5-5-3-5-5-5-5-5-5-5-3-5-5-5-5-5-5-5-3-|
e-----------------------------------------------------------------|

E-------------------------------------------------------------------------|
B-------------------------------------------------------------------------|
G-------------------------------------------------------------------------|
D---------5-7-5-----------5-7-5-------------8-10-8--------------8-10-8----|
A-----5-7-------7-----5-7-------7------8-10--------10------8-10--------10-|
e-5-7-------------5-7-------------8-11----------------8-11----------------|


E-5-5-5-5-5-5-5-3-5-5-5-5-5-5-5-3-5-5-5-5-5-5-5-3-5-5-5-5-5-5-5-3-L---------|
B-7-7-7-7-7-7-7-5-7-7-7-7-7-7-7-5-7-7-7-7-7-7-7-5-7-7-7-7-7-7-7-5--E--------|
G-7-7-7-7-7-7-7-5-7-7-7-7-7-7-7-5-7-7-7-7-7-7-7-5-7-7-7-7-7-7-7-5---T-------|
D-7-7-7-7-7-7-7-5-7-7-7-7-7-7-7-5-7-7-7-7-7-7-7-5-7-7-7-7-7-7-7-5----R------|
A-5-5-5-5-5-5-5-3-5-5-5-5-5-5-5-3-5-5-5-5-5-5-5-3-5-5-5-5-5-5-5-3-----I-----|
e----------------------------------------------------------------------N----|
                                                                        G

            
            
Suggest correction
Creating personal tab
Creating personal tab
You can edit any tab online and save it as your Personal.

You can edit, replace or remove any tab part or add personal notes – all changes will be seen only by you.

Personal tabs can be accessed anytime from any device, even offline.
Learn more »
comments
print report bad tab
4 comments total. Showing first comments.
0 reply
adamooo 10 Aug 10, 2006 03:17 AM

|----------------|
|----------------|
|----------------|
|--------5-7-5---| x2
|----5-7-------7-|
|-5-7------------|

|----------------|
|----------------|
|--------5-7-5---| x2
|----5-7-------7-|
|-5-7------------|
|----------------| when i saw them live he played it like that i think

|--------------|
|--------------|
|--------------|
|-7-7-7-7--7-5-| x2
|-7-7-7-7--7-5-|
|-5-5-5-5--5-3-|

0 reply
viper34620 20 Oct 25, 2006 12:06 AM

im glad to see this solo tabbed out. good job

i noticed one wrong note in the following section ...

E-----------------------------------------------------------------|
B-15--15--15--15-15-15--15-13-11-13-11----11----------------------|
G--------------------------------------12----12-10-12-10----10----|
D--------------------------------------------------------12----12-|
A-----------------------------------------------------------------|
e-----------------------------------------------------------------|

the 11 on the B string should be a 10 or a 14 on the G string.

other than that, nice tab

0 reply
R_H_C_P 190 Nov 09, 2006 03:37 AM

Great tab! Except for that Bb where he said^

guest
Wanna post a correction for this tab? Suggest correction