Oops, an error
Loading. Please wait.

White Unicorn bass

version 1
version 1

Whole song

Interactive

8,311 views 1 this week
11 commentsread comments
1 2 3 4 5
x 17
add to favorites
×
Save as Personal and add changes to this tab that will be seen only by you. Learn more ›
×
You can save this tab as Personal to edit and correct it or add notes. All changes will be seen only by you. Learn more »
launch autoscroll
font size
0
reset
guitar tuner
backing track
0:00
0:00
edit
Autoscroll
slow
fast
+/-
esc
set tempo
stop
Author
Difficulty
-------------------------------------------------------
          White Unicorn   -  Wolfmother
-------------------------------------------------------

Tuning - Standard
Tabbed By - Grinspoon-Guy

Start playing once guitar plays intro twice
Verse
G|---------------------------------------|
D|-----0-0-0-0-0-0-0-0-0-0-0-0-0-0-------|
A|---3-----------------------------------|x7
E|---------------------------------------|

Pre chorus
G|--------------------------------------------|
D|---------0-0-0-0-0-0-0-0-0-0----5-7---------|
A|---3-------------------------5-7------------|
E|--------------------------------------------|

Chorus
G|---------------------------------------------|
D|---------------------------------------------|
A|---3--5-----5/8-----3-3-3-5------------------| x4
E|---------------------------------------------|

G|-----------------------------------------------------------------------|
D|-----------------------------------------------------------------10-12-|
A|-5-5-5-5-5-5-5-5-5-5-5-5-5-5-5/10--5-5-5-5-5-5-5-5-5-5-5-5--10-12------|
E|-----------------------------------------------------------------------|

G|-----------------|
D|--12-10----------|
A|-------10--5-----|
E|-----------------|


Verse
G|---------------------------------------|
D|-----0-0-0-0-0-0-0-0-0-0-0-0-0-0-------|
A|---3-----------------------------------| x3
E|---------------------------------------|

Pre chorus
G|--------------------------------------------|
D|---------0-0-0-0-0-0-0-0-0-0----5-7---------|
A|---3-------------------------5-7------------|
E|--------------------------------------------|

Chorus
G|---------------------------------------------|
D|---------------------------------------------|
A|---3--5-----5/8-----3-3-3-5------------------| x8
E|---------------------------------------------|

G|-----------------------------------------------------------------------|
D|-----------------------------------------------------------------10-12-|
A|-5-5-5-5-5-5-5-5-5-5-5-5-5-5-5/10--5-5-5-5-5-5-5-5-5-5-5-5--10-12------|
E|-----------------------------------------------------------------------|

G|---------------------------|
D|---------------------------|
A|------5-5--5----let-ring---| (several times)
E|---------------------------|

Bass solo (play with keyboard effects and symbols in the background)

G|-7-5------------------------------------5-7-5-7-7-7-7-7-7-7-7-7|
D|------7-5--3-------------------------3-5-----------------------|
A|-------------5-3-5--5--5--5--5---3-5---------------------------|
E|---------------------------------------------------------------|

G|---7-5-----------|
D|-------7-5-3-----|
A|-------------5-3-|
E|-----------------|

G|------------|
D|-------3----|
A|---3-5---5--| x7
E|------------|


G|----------5-7-5-7-7-7-7-7-7-7-7-7--7-5-------------|
D|------3-5------------------------------7-5-3-------|
A|--3-5----------------------------------------5-3-5-|
E|---------------------------------------------------|

Play as soon as guitar comes back in
G|--555--777--|       G|---777---|
D|------------|       D|---------|
A|------------| x8    A|---------| x13
E|------------|       E|---------|

Mini drum solo

Chorus
G|---------------------------------------------|
D|---------------------------------------------|
A|---3--5-----5/8-----3-3-3-5------------------| x6
E|---------------------------------------------|

G|-------------------------------------|
D|-------------------------------------|
A|--5-5-5-5-5-5-5-5-5-5-5-5-5-5-5/10---| x2
E|-------------------------------------|

G|-----------------------------------------------|
D|-----------------------------10-12-------------|
A|---5-5-5-5-5-5-5-5-5---10-12-------------------|
E|-----------------------------------------------|

And thats it! This is my first tab and i am about 95% ure that it is correct. I welcome 
for this tab, not insults.
Suggest correction
Creating personal tab
Creating personal tab
You can edit any tab online and save it as your Personal.

You can edit, replace or remove any tab part or add personal notes – all changes will be seen only by you.

Personal tabs can be accessed anytime from any device, even offline.
Learn more »
comments
print report bad tab
11 comments total. Showing first comments.
+1 reply
wolfmotherrules 20 Aug 27, 2006 05:37 PM

nice tab

+1 reply
bassist792 81 Sep 03, 2006 05:42 AM

great tab cant see nothing wrong! Nice 1

+1 reply
mustang_man384 20 Sep 10, 2006 02:35 PM

exellent work mon fraire

keep on rockin

guest
You may want to rate the tab now too:
select rating
Wanna post a correction for this tab? Suggest correction