Oops, an error
Loading. Please wait.

Witchcraft bass

version 1
version 1

Whole song

Interactive

5,546 views 9 this week
1 commentread comment
1 2 3 4 5
x 7
add to favorites
×
Save as Personal and add changes to this tab that will be seen only by you. Learn more ›
×
You can save this tab as Personal to edit and correct it or add notes. All changes will be seen only by you. Learn more »
launch autoscroll
font size
0
reset
guitar tuner
edit
Autoscroll
slow
fast
+/-
esc
set tempo
stop
Tabbed By : Xcrimson_ghostX
e-mail: skawful27@aim.com

Tuning: standard

MAIN RIFF
    
Part 1: x8                    Part 2: x1
G|-------------------------|----------------------------------|
D|-------5-----------------|----------------------------------|
A|--7-5-7-7-5--------------|----------------------------------|
E|------------5-5-3-5-3-0--|--888888888888777777121212121212--|

CHORUS   x2                                                second time only
G|----------------------------------------------------|--16-14--------------|
D|----------------------------------------------------|--------12-14-12-----|
A|------------9----11----999999999999999999999999999--|-----------------14--|
E|--9--12-9----9-----9--9-----------------------------|---------------------|
                                                         all double digit #s
MAIN RIFF- PART 1: x6   PART 2: x1
CHORUS

BRIDGE
G|-----------------------16-14--------------|
D|-----------------------------12-14-12-----|
A|--------------------------------------14--|
E|--777777777777777777----------------------|

MAIN RIFF- PART 1: x4    PART 2: x1
CHORUS
MAIN RIFF- PART 1: X4



| /  slide up
| \  slide down
| h  hammer-on
| p  pull-off
| ~  vibrato
| +  harmonic
| x  Mute note
===============================================================================

            
            
Suggest correction
Creating personal tab
Creating personal tab
You can edit any tab online and save it as your Personal.

You can edit, replace or remove any tab part or add personal notes – all changes will be seen only by you.

Personal tabs can be accessed anytime from any device, even offline.
Learn more »
comments
print report bad tab
1 comment total.
0 reply
basssoldier 10 Dec 02, 2006 10:49 AM

good intro but some notes were off i give it four stars

guest
You may want to rate the tab now too:
select rating
Wanna post a correction for this tab? Suggest correction