Oops, an error
Loading. Please wait.

Wolfmother album bass

5,022 views 6 this week
2 commentsread comments
1 2 3 4 5
x 3
add to favorites
×
Save as Personal and add changes to this tab that will be seen only by you. Learn more ›
×
You can save this tab as Personal to edit and correct it or add notes. All changes will be seen only by you. Learn more »
launch autoscroll
font size
0
reset
guitar tuner
edit
Autoscroll
slow
fast
+/-
esc
set tempo
stop
Author
Difficulty
Self titled album by Wolfmother
Tabbed by Pat Murphy

1. Dimension – 4:21 
2. White Unicorn – 5:04 
3. Woman – 2:56 
4. Where Eagles Have Been – 5:33 
5. Apple Tree – 3:30 
6. Joker & the Thief – 4:40 
7. Colossal – 5:04 
8. Mind's Eye – 4:54 
9. Pyramid – 4:28 
10. Witchcraft – 3:25 
11. Tales (From the Forest of Gnomes) – 3:39 
12. Love Train – 3:03 
13. Vagabond – 3:50
   ----------------------------------------------------------------------
1. Dimension 

intro/verse
G--------------------------------------------|
D------------------------------------------5-|
A-7----7----7----7----7----7----0--h5--h7----|x3
E--------------------------------------------|

variation
G-----------------------9-7------------|
D---------------------------9-8-7------|
A-7----7----7----7----7-----------10-7-|x1
E--------------------------------------|

intro/verse x 5
variation x 1 
intro/verse x 2

pre-chorus
G-7--7--7--7--7--7--7--7--5--5--5--5--5/-|
D----------------------------------------|
A----------------------------------------|
E----------------------------------------|

chorus
G---------------7-7-9-7----------------------|dont play the notes in ()'s
D-----5-6-7-8-9---------9-8-7-6-5------------|when you repeat
A-5-7----------------------------(7-5-7-5-7)-|x2
E--------------------------------------------|

bridge
G--------------------|
D--------------------|
A--5--7--------------|x4
E---------------6--5-|

G---------------|  |---9-7------------|
D---------------|  |-------9-8-7------|
A----7--0-h5-h7-|x3|-------------10-7-|x1
E-0-------------|  |-0----------------|

intro/verse x 5
variation x 1 
intro/verse x 2
pre-chorus x 1

chorus
G---------------7-7-9-7-----------|------------------------12-12-14-12------
D-----5-6-7-8-9---------9-8-7-6-5-|---------10-11-12-13-14-------------14-13
A-5-7-----------------------------|12-10-12---------------------------------
E---------------------------------|-----------------------------------------

----------------|
-12-11-10-------|
----------12-10-|
----------------|

bridge x 4

G-----------------------------------------|
D-3--3--3--3--3--3--3--3--5--5--5--5--5~~-|
A-----------------------------------------|
E-----------------------------------------|

third verse-
G-------------------|
D-------------------|
A-7----7----0-h5-h7-|x12
E-------------------|

|------------------------------------9-7------------|
|----------------------------------------9-8-7------|
|-7--7--7--7--7--7--7--7--7--7--7--7-----------10-7-|x1
|---------------------------------------------------|

|---------------|  
|---------------|  
|----7--0-h5-h7-|x4
|-0-------------| 

pre-chorus x 1

chorus
G---------------7-7-9-7-----------|------------------------12-12-14-12------
D-----5-6-7-8-9---------9-8-7-6-5-|---------10-11-12-13-14-------------14-13
A-5-7-----------------------------|12-10-12---------------------------------
E---------------------------------|-----------------------------------------

----------------|
-12-11-10-------|
----------12-10-|
----------------|

intro/verse x 4 and end on E

   ----------------------------------------------------------------------

2. White Unicorn 

verse (start after guitar plays once)
G-------------------------------|
D---0-0-0-0-0-0-0-0-0-0-0-0-0-0-|
A-3-----------------------------|x7
E-------------------------------|

variation
G-------------------------------5-|
D---0-0-0-0-0-0-0-0-0-0-----5-7---|
A-3---------------------5-7-------|x1
E---------------------------------|

chorus
G--------------------------|  you may want to slide each note 
D--------------------------|
A-3--5---5--8---3--3--3--5-|x4
E--------------------------|

let the last note (12) ring 
G----------------------------------|----------------------------------------
D----------------------------------|-----------------------------------10-12
A----------------------------------|------------------------10-10-10-12-----
E-/3-3-3-3-3-3-3-3-3-3-3-3-3-3-3-3-|-/3-3-3-3-3-3-3-3-3-3-3-----------------

G------------|
D-12-10------|let last note ring
A-------12-5-|
E------------|

verse x 3
variation x 1
chorus x 8

G----------------------------------|----------------------------------------
D----------------------------------|-----------------------------------10-12
A----------------------------------|------------------------10-10-10-12-----
E-/3-3-3-3-3-3-3-3-3-3-3-3-3-3-3-3-|-/3-3-3-3-3-3-3-3-3-3-3-----------------

play every time the guitar starts that riff he plays during the verse
G-----------|
D-----------|
A-10~~~~~~~-|x9
E-----------|

the last time the guitar plays that that verse riff play this-
G-----------3-5-7-|
D-----3-5-7-------|
A-3-5-------------|
E-----------------|
freaked-out keyboard solo
G-7-5--------------|---------|  |---------3-5-7~~~-|
D-----7-5-3--------|-----3---|  |-----3-5----------|
A-----------5-3-5-5|-3-5---5-|x7|-3-5--------------|
E------------------|---------|  |------------------|

chorus x 6

G----------------------------------|----------------------------------|
D----------------------------------|----------------------------------|
A----------------------------------|----------------------------------|
E-/3-3-3-3-3-3-3-3-3-3-3-3-3-3-3-3-|-/3-3-3-3-3-3-3-3-3-3-3-3-3-3-3-3-|

|-----------------------------------------|
|-----------------------------------10-12-|
|------------------------10-10-10-12------|
|-/3-3-3-3-3-3-3-3-3-3-3------------------|
   
   ----------------------------------------------------------------------

3. Women

verse - come in at about 0:13
G------|----------------------------------------------------------------|
D------|----------------------------------------------------------------|
A------|-7--7-7--7-7-7----5-7--7-7--7-7-7----5-7--7-7--7-7-7----5--5--3-|x3
E-5--3-|---------------5h7----------------5h7----------------5h7--------|

chorus
G----------------------------|-----------|
D----------------------------|-----------|
A--------------------------5-|---7/12\7--|
E-5----8----5----8----7------|-----------|

verse x 3
chorus x 1

Bridge
G----------------------|----------------------|
D----------------------|----------------------|
A--7-5---5-------------|--7-5---5-------------|x2
E------7---7-5-7-5-3-5-|------7---7-5-7-5-3-0-|

G----------------------|----------------------|
D----------------------|----------------------|
A--------5---------5---|--------5--------7----|x8
E--0-5-7-----0-5-7-----|--0-5-7----0-5-7------|

G----------------------------|
D----------------------------|
A--7-5---5-------------------|
E------7---7-5-7-5-3-0--3--5-|

verse x 3
chorus x 1

G----------------------|----------------------|
D----------------------|----------------------|
A--7-5---5-------------|--7-5---5-------------|
E------7---7-5-7-5-3-5-|------7---7-5-7-5-3-0-|

   ----------------------------------------------------------------------

4. Where Eagles Have Been 

live intro
G--------------------------------------| hold each end note
D-----------10h12-12-------------10-12-|
A--------------------------------------|
E-5/7h10--------------5/7h10-----------|

pre-chorus
G-------------------------------------|     
D-------------------------------------|         
A-------------------8----8--8--10--10-|x5 
E-8--10--10--8-8-10---10--------------|     

Chorus
G--------------------------|
D--------------------------|
A--------------------------|x2
E-10------8------5------3--|

Verse x 5
G----------------------10------------------------------------10-----------|
D-----12------10---12------12-10------------12------10---12------12-10----|
A--------------------------------12------------------------------------12-|
E-10------10-------------------------10-10------10------------------------|

pre-chorus 2
G-----12---10----------------------------|
D--------------12-10---------------10-12-|
A-10----------------------10---12--------|
E----------------------8-----------------|

G--------------------|
D--------------------|
A---------8-------10-|
E-8------------------|

pre-chorus x 4
chorus x 2

modified chorus
G---------------------------------------------------------------|  
D-------12-10-10-12\------10-8-81-0\------7-5-5-7\------5-3-3-5-|  
A---------------------------------------------------------------|x2
E-8/10---------------6/8-------------3/5-----------1/3----------|  

Bridge - let these notes ring
G------------------------------------------------------------------|
D---------------------------------------------------10----10----10-|
A-----------------------------------8------------10----10----10----|
E-10----------------------10----------------8----------------------|

G------------------------------------------------------------------------
D------------------------------------------------------------------------
A---------------------------------8--8-8--8-8--8-8--8-8------------------
E-10--10-10--10-10--10-10--10-10------------------------8--8-8--8-8--8-8-

-----------------------|
--------10----10----10-|
-----10----10----10----|x2
8--8-------------------|

G------------------------------------------------|  |------------------|
D------------------------------------------------|  |------------------|
A------------------------------------------------|x1|------------------|x2
E-5--5-5--5-5--5-5--5--5--8--8-8--8-8--8-8--8--8-|  |-10-10-10-10-10-8-|

G------------------------------------------------|  |------------------|
D------------------------------------------------|  |------------------|
A------------------------------------------------|x1|------------------|x4
E-5--5-5--5-5--5-5--5--5--8--8-8--8-8--8-8--8--8-|  |-10-10-10-10-10-8-|

G------| end bridge with this
D------| 
A------|
E-10-8-|

verse x 3
pre-chorus 2 x 1
end on d (E-8--|)

   ----------------------------------------------------------------------

5. Apple Tree 

Verse 1                            Chorus           
G----------------------------|   |--------------------|
D----------------------------|   |--------------------|
A----------------------------|   |-------------4h6-66-|x4
E--------6--------6--------6-|   |-6-6-6-6-4h6--------|

Verse 2                               Chorus 
G------------------------------|   |---|-------------------|
D------------------------------|   |---|-------------------|
A------------------------------|   |---|------------4h6-66-|x4
E-6--------6--------6--------6-|   |-4-|6-6-6-6-4h6--------|

Bridge
G-----|----------|   |---|----------------------------|
D-----|----------|   |---|----------------------------|
A-----|----------|x9 |---|-4-4-4-4-4-4-4-4-4-4--------|x3
E-6~--|--4--6~---|   |-4-|---------------------4----6-|

Verse x 1
Chorus x4
Verse x 1
Chorus x 4

Bridge
G-----|----------|   |----------------------------|
D-----|----------|   |----------------------------|
A-----|----------|x9 |-4-4-4-4-4-4-4-4-4-4--------|x3
E-6~--|--4--6~---|   |---------------------4----6-|

Solo
G------|---------------------------------|   |-----------------------------|
D------|-------------------------6--8--8-|   |-----------------------------|
A------|----------------4--6--8----------|x8 |--4-4-4-4-4-4-4-4-4-4--------|
E-4--6-|-4~---6~--4--6-------------------|   |-4--------------------4----6-|
                                   Final Verse
----------------------------|    |-------------------------------------|
----------------------------|    |-------------------------------------|
-4-4-4-4-4-4-4-4-4-4--------|x2  |-------------------------------------|
---------------------4----6-|    |--------6--------6--------6--------6-|

   ----------------------------------------------------------------------

6. Joker & the Thief 

Bass comes in at 0:19

Intro
G----------------------------------------------|
D------------------------------3~~----5~~------|
A--5~~----3~~----5~~----3~~------------------5-|
E----------------------------------------------|

Before First Verse
G----------|
D--3----5--|
A----------|
E----------|

Verse
G---------------------------------|  |---------------------------------|
D---------------------------------|  |-3---3---3---3---5---5-3-5-3-5-3-|
A-5---5---5---5---5---5-3-5-3-5-3-|x5|---------------------------------|
E---------------------------------|  |---------------------------------|

G---------------------------------|  |---------------------------------|
D---------------------------------|  |-3---------------5---------------|
A-5---5---5---5---5---5-3-5-3-5-3-|x5|---------------------------------|
E---------------------------------|  |---------------------------------|

Chorus
G----------------------------------------------------------|
D-------------------------------------3~~~-----5~~~--------|
A-5~~~-----3~~~-----5~~~-----3~~~------------------------5-|
E----------------------------------------------------------|

Rest for 2 Measures while guitar plays Verse Riff

Verse 2 
G---------------------------------|  |---------------------------------|
D---------------------------------|  |-3---------------5---------------|
A-5---5---5---5---5---5-3-5-3-5-3-|x5|---------------------------------|
E---------------------------------|  |---------------------------------|

G---------------------------------|  |---------------------------------|
D---------------------------------|  |-3---------------5---------------|
A-5---5---5---5---5---5-3-5-3-5-3-|x5|---------------------------------|
E---------------------------------|  |---------------------------------|

Chorus x1

Bridge
G------------------------------------------------------------------------
D-----7-5-4-5-4---------7-5-4-5-4--------7-5-4-5-4---------7-5-4-5-4-5-7-
A-5--------------5-3--------------7-5--------------5-3-------------------
E------------------------------------------------------------------------

--------------------------------------|
----------2-4-7-9----9-7-4-2----------|
----0-2-4--------------------4-2-0----|
--------------------------------------|
^This run is a great use of pentatonic scales

Solo
G-----------------|  |---------------------------------|
D-----------------|  |-3---3---3---3---5---5---5---5---|
A-5---5---5---5-3-|x3|---------------5---------------3-|
E-----------------|  |---------------------------------|

Breakdown
G---------------------------------|  |---------|
D---------------------------------|  |-3----5--|
A-5---5---5---5---5---5-3h5-3h5-3-|x2|---------|
E---------------------------------|  |---------|

Final Verse
G---------------------------------|  |---------------------------------|
D---------------------------------|  |-3---------------5---------------|
A-5---5---5---5---5---5-3-5-3-5-3-|x5|---------------------------------|x2
E---------------------------------|  |---------------------------------|

G------------------------------------|
D-33333333333333335555555555555555---|
A----------------------------------5-| Ritardando (gradually get slower)
E------------------------------------|

   ----------------------------------------------------------------------

7. Colossal 

Intro
G-------------------------------------------------------------------------|
D-------------------------------------------------------------------------|
A-5~~------5-5~~----5-5~~----5-5~~----5-5~~----5-5~~----5-5~~----5-5~~----|
E-------------------------------------------------------------------------|

Verse
G---------------------------------------------|
D---------------------------------------------|
A-5-5-------5-5-------5-5-------5-5---3---5-5-|x4
E---------------------------------------------|

G-----------------------------------------------------------------------|
D-----------------------------------------------------------------------|
A-5-5-------5-5-------5-5-------5-5---3-----------------3-3-3-3-3-3-3-3-|x2
E---------------------------------------5-5-5-5-5-5-5-5-----------------|

Verse x4

G-------------------------------------------------------------------------|
D-------------------------------------------------------------------------|
A-5-5-------5-5-------5-5-------5-5---3-----------------3-3-3-3-3-3-3-3-5-|
E---------------------------------------5-5-5-5-5-5-5-5-------------------|

Rest for 2 measures for Synthesizer

Chorus
G--------------------------------|
D---------6---5------------------|
A-3---5-----------4---3---6---5--|x4
E--------------------------------|

After-Chorus
G----------------------------------------|
D----------------------------------------|
A-------------------------------------3--|
E-5-5-------5-5-------5-5-------5-5------|

Verse
G---------------------------------------------|
D---------------------------------------------|
A-5-5-------5-5-------5-5-------5-5---3---5-5-|x3
E---------------------------------------------|

G-----------------------------------------------------------------------|
D-----------------------------------------------------------------------|
A-5-5-------5-5-------5-5-------5-5---3-----------------3-3-3-3-3-3-3-3-|x2
E---------------------------------------5-5-5-5-5-5-5-5-----------------|

Chorus x 5 

Bridge (3:38)
G---------|-----------------------------------------------------------------
D---------|----------------------------------------3-3-3--------------------
A---------|-3h5-5-5-55-5-3h5-5-5-55-5-3h5-5-5-55-5-------3h5-5-5-55-5-3h5-5-
E-3--4--5-|-----------------------------------------------------------------

-----------------------------|  |---------------------|
-----------------------------|  |---------------------|
-5-55-5-3h5-5-5-55-5---------|x3|-8-8-8-7-7-7-6-6-6-5-|x4
---------------------3--4--5-|  |---------------------|

G------------------|
D------------------|
A-8----7----6----5-|x5
E------------------|

   ----------------------------------------------------------------------

8. Mind's Eye 

Rest on the intro and come in on the first verse

Verse (On the Fourth repeat skip the last F note)
G-----------------|  |-----------------------------------------------------
D-----------------|  |--------------------2--5-----------------------------
A-----------------|x4|-----------2--3--5--------------------------2--3--5--
E-5----3----1-----|  |--1--3--5-----------------5----3----1--3--5----------
  A    G    F
       Chorus
------|--------------------|  |--------------------|
-2--5-|--------------------|  |--------------------|
------|--------5--3------5-|x3|--------5--3--------|
------|-5------------------|  |-5----------------3-|

Verse (On the Third repeat skip the last F note)
G-----------------|  |--------------------------|
D-----------------|  |--------------------2--5--|
A-----------------|x3|-----------2--3--5--------|
E-5----3----1-----|  |--1--3--5-----------------|
  A    G    F

Chorus
G--------------------|  |--------------------------|
D--------------------|  |--------------------2--5--|
A--------5--3--------|x3|-----------2--3--5--------|
E-5----------------5-|  |--1--3--5-----------------|

Piano Solo - Sticcato
G--------------------|
D--------------------|
A--------5--3------5-|x2
E-5------------------|

Chorus x 3

Variation
G-----------------------|
D-----------------------|
A------------3-3-3-3----|
E-1-----3-----------3-3-|

Chorus
G--------------------|  |--------------------------|
D--------------------|  |--------------------2--5--|
A--------5--3--------|x3|-----------2--3--5--------|
E-5----------------5-|  |--1--3--5-----------------|

   ----------------------------------------------------------------------

9. Pyramid

Intro/Verse
G--------------------------------------|
D--------------------------------------|
A--------------------------------------|x8
E-0-3--0-3--0-3--0-3--0-3--0-3--0-3-/6-|


G---------------------------------------------------------------------------
D-------------------------------------------------------------9999/8888/7777
A-2--2-2--2-2--2-2--2-2--2-2--2-2--2-2--2-2--2-2--2-2--2-2--2---------------
E---------------------------------------------------------------------------

-------|--------------------------------------|
/6666--|--------------------------------------|
-------|--------------------------------------|x4
-------|-0-3--0-3--0-3--0-3--0-3--0-3--0-3-/6-|

G---------------------------------------------------------------------------
D--------------------------------------------999999999999999999999/8888/7777
A-2--2-2--2-2--2-2--2-2--2-2--2-2--2-2--2-2---------------------------------
E---------------------------------------------------------------------------
        Verse 1
-------|--------------------------------------|
/6666--|--------------------------------------|
-------|--------------------------------------|x14
-------|-0-3--0-3--0-3--0-3--0-3--0-3--0-3-/6-|

Chorus
G---------------------------------------------------------------------------
D--------------------------------------------999999999999999999999/8888/7777
A-2--2-2--2-2--2-2--2-2--2-2--2-2--2-2--2-2---------------------------------
E---------------------------------------------------------------------------

-------|
/6666--|
-------|
-------|

Verse x 4
Chorus x 1

Variation
G---------------------------------------------|  |-------------------------|
D---------------------------------------------|  |------------------5-3---3|
A-------------------------------------3-1---1-|x4|-5--5--5--5--5--5-----5--|
E-0-3--0-3--0-3--0-3--0-3--0-3--0-3-0-----3---|  |-------------------------|

G---------------------------------------|
D---------------------------------------|
A------------8-6----6-------------------|
E-8--8--8--8-----10---10-8-10-8-6-8-6-5-|

Bridge (Let the last note of the Variation act as the first note of Bridge)
G----------------------------------------------------------------|
D----------------------------------------------------------------|
A-----------------------------------------3~~-------5~~----------|
E-5~~-------3~~-------5~~-------3~~--------------------------5~~-|

Solo
G----------------------------------------------------------------|
D-7-5-4------------------------4-5-7-----------------------------|
A-------7-5-3------------3-5-7-----------------------------------|x4
E-------------3~~------5-----------------------------------------|

End of Solo
G------------------------------|
D------------------------------|
A-----------3~~------5~~-------|
E-3~~--------------------------|

Verse x 12
Chorus x 1

Outro
G---------------------------------------------|  |-------------------------|
D---------------------------------------------|  |------------------5-3---3|
A-------------------------------------3-1---1-|x4|-5--5--5--5--5--5-----5--|
E-0-3--0-3--0-3--0-3--0-3--0-3--0-3-0-----3---|  |-------------------------|

G---------------------------------------------------------------------------
D---------------------------------------------------------------------------
A------------8-6----6-------------------8-6----6-------------------8-6----6-
E-8--8--8--8-----10---10-8-10-8-6-8-6-5-----10----10-8-6-8-10-8-6-5----10---

-----------------------|
-----------------------|
-----------------------|
-10-8-6-8-10-8-6-5---3-|

   ----------------------------------------------------------------------

10. Witchcraft

Rest for 2 measures
Intro/Verse
G--------------------------------|
D--------5-----------------------|
A-7--5-7----7--5-----------------|x8
E----------------5--5-3-5--3--0--|

Chorus 1
G--------------------|------------------------------------------------------
D--------------------|-----2-----4-----6--------4-4-4-44-2-2-4-4-4-44-2-2-4-
A-3~~------2~~--7~~--|-4-----4-----4-----4----4-----------------------------
E--------------------|------------------------------------------------------

----------------------------------------------------------------------------
-4-4-44-2-2-4-4-4-44-2-2-----2-----4-----6---------4-4-4-44-2-2-4-4-4-44-2-2
-------------------------4-----4-----4-----4-----4--------------------------
----------------------------------------------------------------------------

----------------------------------|
-4-4-4-44-2-2-4--2----------------|
--------------------4--2--4--2--0-| rest for 2 mesures before second verse
----------------------------------|

Verse x 6

Chorus 2 
G--------------------|------------------------------------------------------
D--------------------|-----2-----4-----6--------4-4-4-44-2-2-4-4-4-44-2-2-4-
A-3~~------2~~--7~~--|-4-----4-----4-----4----4-----------------------------
E--------------------|------------------------------------------------------

-------------------------|
-4-4-44-2-2-4-4-4-44-2-2-|
-------------------------|x2
-------------------------|

Begining of Flute solo
G----------------------------------|
D--------------4--2----------------| To finish off the solo, play 
A-2~~------2~~-------4--2--4--2--0-| the Verse riff four times
E----------------------------------|

Chorus 1 x 1

After-Chorus
G----------------------------------|
D----------------------------------| Go right back into the Verse riff
A--7-------------------------------| twice and end on E (A-----7-|)
E--------------------3///////15\\\-|

Afterwords, make some noises like your putting your gear away

   ----------------------------------------------------------------------

11. Tales (From the Forest of Gnomes)

Intro
G-----------------------------|
D-----------------------------|
A------------------5----------|
E-5--------3----------------5-|

Verse
G--------------------------------------------------------|
D------------------------17-16-14------------------------|
A-------16-17-19-17---------------17------9-10-12-10-----|x2
E-//17---------------15---------------10-------------5---|

Interlude
G--------------------------------------|
D--------------------------------------|
A-3~~------2~~------5~~//////12~~------|x3
E--------------------------------------|

Verse x 2

Chorus
G-----------------------------|
D-----------------------------|
A------------------5----------|x4
E-5--------3----------------5-|

Interlude x 3
Verse x 2
Chorus  x 4

Outro
G--------------------------------------|
D--------------------------------------|
A-3~~------2~~------5~~----------------|x3
E----------------------------5~~-------|

   ----------------------------------------------------------------------

12. Love Train

Come in at 0:10 after bongos

Intro                         Verse
G-------------------------|  |-------------------------|
D------3-5-5--3-1---1-----|  |------3-5-5--3-1---1-----|
A-3---3-----------3---3-1-|x4|-3---3-----------3---3-1-|x8
E-------------------------|  |-------------------------|

Chorus
G------------------|
D------------------|
A-5~~------6~---5--|
E------------------|

Verse x 2
Chorus x 1
Intro x 1

Verse 2 
G--------------------------|--------------------------|
D-----3-5-5--3-1---1-------|--------------------------|
A-3--3-----------3---3-1-3-|----------rest------------|x4
E--------------------------|--------------------------|

Verse x 1
Chorus x 1

Solo (This is actually a keyboard, but it sounds fine with bass)
G--------------------------------------------------------------------------|
D----------5-3~~--3-5--------5-3~~--3-5--------7-5~~--5-7-------7-5~~--5-7-|
A--3~~----------------3~~-3-------------5~~-5-------------5~~-5------------|
E--------------------------------------------------------------------------|

Keyboard Break
G---------------------------------------------------------------------------
D---------------------------------------------------------------------------
A-----------------------3-3-------------------------------------------------
E--1//////////12--------------------1////////////15-16p15-16p15-16p15-16p15-

------------------------------------------------------|
------------------------------------------------------|
--3-3----------3-3----------3-3----------3-3----------|
------------------------------------------------------|
Chorus x 1
Verse x 2
Chorus x 1

Bridge
G----------------------------------------------|
D----------------------------------------------|
A-3----3----3----3-----3--3--3--3--3--3--3--3--|
E----------------------------------------------|

Another Solo (also without bass, but keyboard does the same thing as before)
G--------------------------------------------------------------------------
D----------5-3~~--3-5--------5-3~~--3-5--------7-5~~--5-7-------7-5~~--5-7-
A--3~~----------------3~~-3-------------5~~-5-------------5~~-5------------
E--------------------------------------------------------------------------

-------|
-------|
-3--3--|
-------|

   ----------------------------------------------------------------------

13. Vagabond

Rest during the First Verse

Interlude
G--------------------12h14--12h14-|  |-------------------10h12--10h12-|
D--------------12h14--------------|  |-------------10h12--------------|
A-/12-12-12-12--------------------|x2|-10-10-10-10--------------------|x2
E---------------------------------|  |--------------------------------|
   A                                   G
|--------------------------------|  |-------------------12h14--12h14-|
|-------------------10h12--10h12-|  |-------------12h14--------------|
|-------------10h12--------------|x2|-12-12-12-12--------------------|x2
|-10-10-10-10--------------------|  |--------------------------------|
  D                                   A    

Second Verse
G-------------------12h14--12h14-|  |-------------------10h12--10h12-|
D-------------12h14--------------|  |-------------10h12--------------|
A-12-12-12-12--------------------|x4|-10-10-10-10--------------------|x1
E--------------------------------|  |--------------------------------|
  A                                   G
|--------------------------------|  
|-------------------10h12--10h12-|  
|-------------10h12--------------|x1
|-10-10-10-10--------------------|  
  D

Interlude 2
G--------------------12h14--12h14-|  |-------------------10h12--10h12-|
D--------------12h14--------------|  |-------------10h12--------------|
A-/12-12-12-12--------------------|x2|-10-10-10-10--------------------|x2
E---------------------------------|  |--------------------------------|
   A                                   G
|--------------------------------|  |----------------------------|
|-------------------10h12--10h12-|  |---------------8h10--8h10---|
|-------------10h12--------------|x2|----------8h10--------------|x1
|-10-10-10-10--------------------|  |-8-8-8-8--------------------|
  D                                   C
|-----------------------------------|
|-------------------10h12--10h12----|
|-------------10h12-----------------|
|-10-10-10-10--------------------5--|
  D                              A

No bass in the Last Verse or Outro

Check out my bass tab for Wolfmother's new song - Pleased To Meet You

   ----------------------------------------------------------------------

            
            
Suggest correction
Creating personal tab
Creating personal tab
You can edit any tab online and save it as your Personal.

You can edit, replace or remove any tab part or add personal notes – all changes will be seen only by you.

Personal tabs can be accessed anytime from any device, even offline.
Learn more »
Give kudos to tab author, rate the tab!
1 2 3 4 5
comments
print report bad tab
2 comments total.
0 reply
Grinspoon-Guy 41 Jul 14, 2007 04:54 AM

I dunno man u changed some good tabs that were right. You would have been better off copying everyones tab but then giving them credit for it.

0 reply
Bradgrrw 31 Aug 04, 2007 09:39 PM

I don't play bass or anything but am trying to find some tabs for my friend so we can play together but a lot of these tabs look as if they are the main parts of the song or are they the bass parts of the song?

guest
You may want to rate the tab now too:
select rating
Wanna post a correction for this tab? Suggest correction