Oops, an error
Loading. Please wait.

Woman Bass Tab

version 1
version 1
11,261 views 3 this week
4 commentsread comments
1 2 3 4 5
accurate
x 3
add to favorites
launch autoscroll
font size
0
reset
guitar tuner
Autoscroll
slow
fast
+/-
esc
set tempo
stop
Help us to improve Ultimate-Guitar.com Take our survey!
×
Difficulty
novice
standard tuneing, i dont remember what order the parts go in, but these are the main 
just listen to the song, its pretty easy to figgure out where they go

e---------------------|
a---------------------|
d---7-7-7-7-7-7---5-7-|
g--------------5-7----|
after that last 7 it repeats

e-------------------------------------|
a-------------------------------------|
d--------5-------5-------5------7-----|
g---5-6-7---5-6-7--5-6-7---5-6-7------|

and then the soloish thing is
e----------------------------|
a----------------------------|
d-7-5-5----------------------|
g----7-7-5-7-5-3-5-3-0-------|

e----------------------------|
a----------------------------|
d-7-5-5----------------------|
g----7-7-5-7-5-3-0-----------|

yea, some of the parts might be a little more broken up then that, or a little more 
i dunno, but thats basically it
Suggest correction
What's this?
You can suggest a correction to this tab. Community and Mods will review your correction and vote to approve or reject it.
comments
We did not receive enough feedback on this tab! Please rate:
print report bad tab
1 2 3 4 5
4 comments total. Showing first comments.
0 reply
DoctorFu 107 wrote on June 24 2006, 12:08 pm

The tabs are upside-down and are missing alot from the song. Also non accurate in places.

0 reply
bassbassbase 16 wrote on May 9 2007, 01:28 pm

yea i agree wit doctorflu if he wanna he cn join ma posse iiii

0 reply
bassbassbase 16 wrote on May 9 2007, 01:29 pm

doctorfu even

guest
You may want to rate the tab now too:
select rating
Please do not post tabs as comments. Select "correction" instead!