Oops, an error
Loading. Please wait.

Woman Tab

version 1
124,032 views 45 this week
12 commentsread comments
1 2 3 4 5
x 28
add to favorites
launch autoscroll
font size
0
reset
how to read this tab
guitar tuner
backing track
0:00
0:00
×
Best way to learn
"Woman"
Autoscroll
slow
fast
+/-
esc
set tempo
stop
Author
-------------------------------------------------------------------------------
                             Woman - Wolfmother
-------------------------------------------------------------------------------

Tabbed by: Travis Dunn
Email: alpha_numeric_101@hotmail.com

Wolfmother is a great new aussie act straight out of sydney, they've been in england
recently supporting afew bands, and they just toured with the big day out festival in
australia. They have an old type rock feel, like a mesh of black sabbath and led
zeppelin but dont get confused cause they have their own unique style. 

www.wolfmother.com

Some of it might be off as this is my first tab ever, most is pretty close tho, enjoy :).

Tuning: Standard

e|---------------------------------------------------------------------------|
B|---------------------------------------------------------------------------|
G|---9-9-9-9-9----------9-9-9-9-9----------9-9-9-9-9-------------------------|
D|---9-9-9-9-9----------9-9-9-9-9----------9-9-9-9-9------------7--5---------|
A|---7-7-7-7-7-------5--7-7-7-7-7-------5--7-7-7-7-7-------5----7--5---------|
E|-------------5-5h7--------------5-5h7--------------5-5h7------5--3---------|(x2)

[Verse]

e|---------------------------------------------------------------------------|
B|---------------------------------------------------------------------------|
G|---9-9-9-9-9----------9-9-9-9-9----------9-9-9-9-9-------------------------|
D|---9-9-9-9-9----------9-9-9-9-9----------9-9-9-9-9------------7--5---------|
A|---7-7-7-7-7-------5--7-7-7-7-7-------5--7-7-7-7-7-------5----7--5---------|
E|-------------5-5h7--------------5-5h7--------------5-5h7------5--3---------|(x2)

[Chorus]

e|---------------------------------------------------------------------------|
B|---------------------------------------------------------------------------|
G|---------------------------------------------------------------------------|
D|---7~---------9~---------7~----------9~-----8~-----9~----------------------|
A|---7~---------9~---------7~----------9~-----8~-----9~----------------------|
E|---5~---------7~---------5~----------7~-----6~-----7~----------------------|

e|---------------------------------------------------------------------------|
B|---------------------------------------------------------------------------|
G|---9-9-9-9-9----------9-9-9-9-9----------9-9-9-9-9-------------------------|
D|---9-9-9-9-9----------9-9-9-9-9----------9-9-9-9-9------------7--5---------|
A|---7-7-7-7-7-------5--7-7-7-7-7-------5--7-7-7-7-7-------5----7--5---------|
E|-------------5-5h7--------------5-5h7--------------5-5h7------5--3---------|

[Verse 2]

e|---------------------------------------------------------------------------|
B|---------------------------------------------------------------------------|
G|---9-9-9-9-9----------9-9-9-9-9----------9-9-9-9-9-------------------------|
D|---9-9-9-9-9----------9-9-9-9-9----------9-9-9-9-9------------7--5---------|
A|---7-7-7-7-7-------5--7-7-7-7-7-------5--7-7-7-7-7-------5----7--5---------|x2
E|-------------5-5h7--------------5-5h7--------------5-5h7------5--3---------|

[Chorus]

e|---------------------------------------------------------------------------|
B|---------------------------------------------------------------------------|
G|---------------------------------------------------------------------------|
D|---7~---------9~---------7~----------9~-----8~-----9~----------------------|
A|---7~---------9~---------7~----------9~-----8~-----9~----------------------|
E|---5~---------7~---------5~----------7~-----6~-----7~----------------------|

[Bridge]

e|---------------------------------------------------------------------------|
B|---------------------------------------------------------------------------|
G|---------------------------------------------------------------------------|
D|---------------------------------------------------------------------------|
A|-7p5---5-------------7p5---5-----------7p5---5-------------7p5---5---------|
E|-----7--7-5-7p5-3-5------7---7p5-3-0-------7--7-5-7p5-3-5------7---7p5-7-0-|

e|---------------------------------------------------------------------------|
B|---------------------------------------------------------------------------|
G|---------------------------------------------------------------------------|
D|---------------------------------------------------------------------------|
A|-7p5---5-------------7p5---5-----------7p5---5-------------7p5---5---------|
E|-----7--7-5-7p5-3-5------7---7p5-3-0-------7--7-5-7p5-3-5------7---7p5-7-0-|

e|---------------------------------------------------------------------------| 
B|---------------------------------------------------------------------------|
G|---------------------------------------------------------------------------|
D|---------------------------------------------------------------------------|
A|---------------5---------5---------5---------7-----------------------------|
E|-----0-0-5-6-7---0-5-6-7---0-5-6-7---0-5-6-7-------------------------------|(x8)

after the 8th time play this

e|---------------------------------------------------------------------------|
B|---------------------------------------------------------------------------|
G|---------------------------------------------------------------------------|
D|-----------------------7--5------------------------------------------------|
A|-----7p5---5-----------7--5------------------------------------------------|
E|---------7---7-3-0-----5--3------------------------------------------------|

e|---------------------------------------------------------------------------|
B|---------------------------------------------------------------------------|
G|---9-9-9-9-9----------9-9-9-9-9----------9-9-9-9-9-------------------------|
D|---9-9-9-9-9----------9-9-9-9-9----------9-9-9-9-9------------7--5---------|
A|---7-7-7-7-7-------5--7-7-7-7-7-------5--7-7-7-7-7-------5----7--5---------|
E|-------------5-5h7--------------5-5h7--------------5-5h7------5--3---------|

[Verse 3]

e|---------------------------------------------------------------------------|
B|---------------------------------------------------------------------------|
G|---9-9-9-9-9----------9-9-9-9-9----------9-9-9-9-9-------------------------|
D|---9-9-9-9-9----------9-9-9-9-9----------9-9-9-9-9------------7--5---------|
A|---7-7-7-7-7-------5--7-7-7-7-7-------5--7-7-7-7-7-------5----7--5---------|
E|-------------5-5h7--------------5-5h7--------------5-5h7------5--3---------|(x2)

[Chorus/Outro]

e|---------------------------------------------------------------------------|
B|---------------------------------------------------------------------------|
G|---------------------------------------------------------------------------|
D|---7~---------9~---------7~----------9~-----8~-----9~~~~~------------------|
A|---7~---------9~---------7~----------9~-----8~-----9~~~~~------------------|
E|---5~---------7~---------5~----------7~-----6~-----7~~~~~------------------|


************************************

| /  slide up
| \  slide down
| h  hammer-on
| p  pull-off
| ~  vibrato
| +  harmonic
| x  Mute note
| ~  let ring (only in chorus)

************************************
Suggest correction
comments
print report bad tab
12 comments total. Showing first comments.
0 reply
Sephiroth329 10 Apr 15, 2006 02:04 AM

thats my tab

+2 reply
gitarman1 82 Jun 10, 2006 05:26 AM

The Chorus is all wrong and the main riff chord plays six times before you play 5 and hammer 7

+3 reply
ryan100 288 Jul 18, 2006 10:12 PM

chorus is hell wrong

guest
You may want to rate the tab now too:
select rating
Wanna post a correction for this tab? Suggest correction