Oops, an error
Loading. Please wait.

Woman Bass Tab

version 2
version 2
48,571 views 69 this week
9 commentsread comments
1 2 3 4 5
excellent!
x 40
add to favorites
launch autoscroll
font size
0
reset
guitar tuner
Autoscroll
slow
fast
+/-
esc
set tempo
stop
Help us to improve Ultimate-Guitar.com Take our survey!
×
Author
Difficulty
intermediate
song: woman
artist: wolfmother
album: wolf mother
tuning: standard (eadg)
tempo: 148
advice: what out for the triplets throughout the song,
i have markes all the triplets with t... 


intro
g|-|-----------------|  |---------|
d|*|*---------------*|  |--------*|
a|*|*7-7-7-7-7-----5*|x3|--------*|  x1
e|-|-----------5h7---|  |5---3----|
                t...
verse
g|-|-----------------|  |---------|
d|*|*---------------*|  |--------*|
a|*|*7-7-7-7-7-----5*|x3|--------*|  x3
e|-|-----------5h7---|  |5---3----|
               t.... 
chorus
g|--------|--------|--------|--------|
d|--------|--------|--------|--------|
a|--------|--------|--------|--------|
e|5-------|8-------|5-------|8-------|

g|--------|--------|----------|
d|--------|--------|----------|
a|--------|5-------|(5)-------|
e|7-------|--------|----------|

verse again

chorus again 

interlude
g|--------------------|--------------------|
d|*-------------------|-------------------*|
a|*7-5---5------------|7-5---5------------*| x4
e|-----7---7-5-7-5-3-5|----7---7-5-7-5-4-0-|
   t...  t...  t...    t...  t...  t...
g|-----------------|-----------------|
d|*----------------|----------------*|
a|*------5--------5|------5------7-7*| x15
e|-0-5-7----0-5-7--|0-5-7----0-5-----|
   t...     t...    t...     t...
g|-------------------|--------|
d|-------------------|--------|
a|7-5---5------------|--------|
e|----7---7-5-7-5-3-5|5---3---|
  t...  t... t...   
 
verse again

chorus again

outro
g|-------------------|-------------------|
d|-------------------|-------------------|
a|7-5---5------------|7-5---5------------|
e|----7---7-5-7-5-3-5|----7---7-5-7-5-3-0|
  t...  t...  t...    t...  t...  t...

questions, comments email me @ zstorman@yahoo.com, thanks







Suggest correction
What's this?
You can suggest a correction to this tab. Community and Mods will review your correction and vote to approve or reject it.
comments
print report bad tab
9 comments total. Showing first comments.
+1 reply
DoctorFu 107 wrote on June 24 2006, 12:10 pm

Great tab complete with tempo changes.. There was one spot in the interlude that doesn't sound right but it still deserves the five stars.

+1 reply
psychokiss 17 wrote on July 22 2006, 08:54 pm

Thanks! I'm a beginner, and I just almost-mastered this tab. It sounds great!

+1 reply
RHCP_25 137 wrote on July 28 2006, 11:14 am

ye but the bass player in wolfmother plays a keyboard solo during the song jst in the

A|--------5--------5--------5--------7---
E|--0h5-7----0h5-7----0h5-7----0h5-7-----

bit but it doesnt matter

guest
You may want to rate the tab now too:
select rating
Please do not post tabs as comments. Select "correction" instead!