Oops, an error
Loading. Please wait.

Woman Bass Tab

version 2
version 2
49,387 views 57 this week
9 commentsread comments
1 2 3 4 5
x 40
add to favorites
launch autoscroll
font size
0
reset
guitar tuner
Autoscroll
slow
fast
+/-
esc
set tempo
stop
Help us to improve Ultimate-Guitar.com Take our survey!
×
Author
Difficulty
intermediate
song: woman
artist: wolfmother
album: wolf mother
tuning: standard (eadg)
tempo: 148
advice: what out for the triplets throughout the song, i have markes all the triplets with t... 

[Intro]
G|-|-----------------|  |---------|
D|*|*---------------*|  |--------*|
A|*|*7-7-7-7-7-----5*|x3|--------*|  x1
E|-|-----------5h7---|  |5---3----|
                t...

[Verse]
G|-|-----------------|  |---------|
D|*|*---------------*|  |--------*|
A|*|*7-7-7-7-7-----5*|x3|--------*|  x3
E|-|-----------5h7---|  |5---3----|
               t.... 

[Chorus]
G|--------|--------|--------|--------|
D|--------|--------|--------|--------|
A|--------|--------|--------|--------|
E|5-------|8-------|5-------|8-------|

G|--------|--------|----------|
D|--------|--------|----------|
A|--------|5-------|(5)-------|
E|7-------|--------|----------|

[Verse]
G|-|-----------------|  |---------|
D|*|*---------------*|  |--------*|
A|*|*7-7-7-7-7-----5*|x3|--------*|  x3
E|-|-----------5h7---|  |5---3----|
               t.... 

[Chorus]
G|--------|--------|--------|--------|
D|--------|--------|--------|--------|
A|--------|--------|--------|--------|
E|5-------|8-------|5-------|8-------|

G|--------|--------|----------|
D|--------|--------|----------|
A|--------|5-------|(5)-------|
E|7-------|--------|----------|

[Interlude]
G|--------------------|--------------------|
D|*-------------------|-------------------*|
A|*7-5---5------------|7-5---5------------*| x4
E|-----7---7-5-7-5-3-5|----7---7-5-7-5-4-0-|
   t...  t...  t...    t...  t...  t...

G|-----------------|-----------------|
D|*----------------|----------------*|
A|*------5--------5|------5------7-7*| x15
E|-0-5-7----0-5-7--|0-5-7----0-5-----|
   t...     t...    t...     t...

G|-------------------|--------|
D|-------------------|--------|
A|7-5---5------------|--------|
E|----7---7-5-7-5-3-5|5---3---|
  t...  t... t...   
 
[Verse]
G|-|-----------------|  |---------|
D|*|*---------------*|  |--------*|
A|*|*7-7-7-7-7-----5*|x3|--------*|  x3
E|-|-----------5h7---|  |5---3----|
               t.... 

[Chorus]
G|--------|--------|--------|--------|
D|--------|--------|--------|--------|
A|--------|--------|--------|--------|
E|5-------|8-------|5-------|8-------|

G|--------|--------|----------|
D|--------|--------|----------|
A|--------|5-------|(5)-------|
E|7-------|--------|----------|

[Outro]
G|-------------------|-------------------|
D|-------------------|-------------------|
A|7-5---5------------|7-5---5------------|
E|----7---7-5-7-5-3-5|----7---7-5-7-5-3-0|
  t...  t...  t...    t...  t...  t...


************************************

| x    Dead note
| h    Hammer-on
| (n)  Ghost note

************************************

questions, comments email me @ zstorman@yahoo.com, thanks
Suggest correction
comments
print report bad tab
9 comments total. Showing first comments.
+1 reply
DoctorFu 10 Jun 24, 2006 12:10 PM

Great tab complete with tempo changes.. There was one spot in the interlude that doesn't sound right but it still deserves the five stars.

+1 reply
psychokiss 10 Jul 22, 2006 08:54 PM

Thanks! I'm a beginner, and I just almost-mastered this tab. It sounds great!

+1 reply
RHCP_25 20 Jul 28, 2006 11:14 AM

ye but the bass player in wolfmother plays a keyboard solo during the song jst in the

A|--------5--------5--------5--------7---
E|--0h5-7----0h5-7----0h5-7----0h5-7-----

bit but it doesnt matter

guest
You may want to rate the tab now too:
select rating
Wanna post a correction for this tab? Suggest correction