Oops, an error
Loading. Please wait.
We have an official Woman tab made by UG professional guitarists. Check out the tab »
×
1,422 views 1 this week
1 commentread comment
1 2 3 4 5
2 more votes to show rating
add to favorites
×
Save as Personal and add changes to this tab that will be seen only by you. Learn more ›
×
You can save this tab as Personal to edit and correct it or add notes. All changes will be seen only by you. Learn more »
launch autoscroll
font size
0
reset
guitar tuner
backing track
0:00
0:00
edit
Autoscroll
slow
fast
+/-
esc
set tempo
stop
Author
i recoment useing a pick and turn the equlizer as heigh as possible!

the itro is just the guitar untill here------------->

G|----------------|----------------|-----------------|----------------|
D|----------------|----------------|-----------------|----------------|
A|-7-7-7-7-7-7----|5-7-7-7-7-7-7---|5-7-7-7-7-7-7----|5-7(hold)5(hold)|
E|-------------5h7|-------------5h7|--------------5h7|----------------|

repeet untill chours


   shes a woman you know whgat i mean...
G|------------------------------------|
D|------------------------------------|
A|------------------------------------|  play on E or A i dont know
E|-7(Hold)----------5(hold)-----------|  which one it is


go in to intro/ verse one more time then do this riff

instermental 1
G|-----------------|
D|-----------------|
A|-7-5---5---------|
E|-----7---7-5-3-0-|  X8

then


inatermental 2
G|--------------------------------|
A|------------------------------7-|
D|-------7-------7------7-0-5-7---|
G|-0-5-7---0-5-7---0-5-7----------|
repeat as many times as you and your guitarsts(s) wish there is a keyboard solo that the 
stops playing and does i did guess how that goes on the guitar but it dosnt sound grate 
i wont put it in

then play instermental 1 once and play the intro riff into the first verse do the chours 
end with holding the last note of the chours.


* TIP! when playing the intro and  instermental 1 bar 5th fret on the E and A strings so 
only finger moving is the ring finger which only is on the 7th fret this helps alot 
you have the musle to do so!

if this is wrong in any way or have any suggestiins email me at mike__johnston@hotmail.com

            
            
Suggest correction
Creating personal tab
Creating personal tab
You can edit any tab online and save it as your Personal.

You can edit, replace or remove any tab part or add personal notes – all changes will be seen only by you.

Personal tabs can be accessed anytime from any device, even offline.
Learn more »
Give kudos to tab author, rate the tab!
1 2 3 4 5
comments
print report bad tab
1 comment total.
0 reply
jimmy_jazz 61 Mar 04, 2007 06:48 AM

the chours is played on the A string not the E

guest
You may want to rate the tab now too:
select rating
Wanna post a correction for this tab? Suggest correction