Oops, an error
Loading. Please wait.
We have an official Woman tab made by UG professional guitarists. Check out the tab »
×
6,097 views 3 this week
1 commentread comment
1 2 3 4 5
x 4
add to favorites
×
Save as Personal and add changes to this tab that will be seen only by you. Learn more ›
×
You can save this tab as Personal to edit and correct it or add notes. All changes will be seen only by you. Learn more »
launch autoscroll
font size
0
reset
guitar tuner
backing track
0:00
0:00
edit
Autoscroll
slow
fast
+/-
esc
set tempo
stop
Author
Difficulty
-------------------------------------------------------------------------------
			     Woman - Wolfmother
-------------------------------------------------------------------------------

Tabbed By : Uber-rocker	 
e-mail: kaigrant_88@hotmail.com

Tuning: Standard - EADG

Intro/Verses

Guitar intro

   "Woman, you know you woman, you gotta be woman..."
G|----|-----------------------------------------------------------------------|
D|----|-----------------------------------------------------------------------|
A|----|-7-77-77-----5-7-77-77-----5-7-77-77-----5-----------------------------|
E|5-3-|---------55h7----------55h7----------55h7--5--3------------------------|

Chorus

    "she is woman, you know what I mean"   
G|---------------------------------------------------------------------------|
D|---------------------------------------------------------------------------|
A|---------------------5-----------------------------------------------------|
E|-5---8---5---8---7---------------------------------------------------------|

Solo - tricky till you get the hang of it

G|----------------------------           -----------------------------     
D|----------------------------\_         -----------------------------\_     
A|7p5-5---------7p5-5--------- _x four   -----5------5------5------7---_x fifteen
E|---7-75-7p535----7-75-7p530-/          0h5h7--0h5h7--0h5h7--0h5h7---/           

G|---------------------------------------------------------------------------|
D|---------------------------------------------------------------------------|
A|7p5-5----------------------------------------------------------------------|
E|---7-75-7p535-5--3---------------------------------------------------------|

Ending

G|---------------------------------------------------------------------------|
D|---------------------------------------------------------------------------|
A|7p5-5---------7p5-5--------------------------------------------------------|
E|---7-75-7p535----7-75-7p530------------------------------------------------|

ORDER:	Intro/Verse x 3
	Chorus 	
	Verse x 3
	Chorus 
	Solo 
 	Verse x  
	Ending

| /  slide up
| \  slide down
| h  hammer-on
| p  pull-off
| ~  vibrato
| +  harmonic
| x  Mute note
===============================================================================

            
            
Suggest correction
Creating personal tab
Creating personal tab
You can edit any tab online and save it as your Personal.

You can edit, replace or remove any tab part or add personal notes – all changes will be seen only by you.

Personal tabs can be accessed anytime from any device, even offline.
Learn more »
comments
print report bad tab
1 comment total.
0 reply
blackseptember 50 Apr 19, 2007 11:10 PM

When you hammer 5 dont hammer it twice other than that. nice tab! keep up the good work

guest
You may want to rate the tab now too:
select rating
Wanna post a correction for this tab? Suggest correction