Oops, an error
Loading. Please wait.

Women bass

version 1
version 1

Whole song

Interactive

2,865 views 1 this week
11 commentsread comments
1 2 3 4 5
x 3
add to favorites
×
Save as Personal and add changes to this tab that will be seen only by you. Learn more ›
×
You can save this tab as Personal to edit and correct it or add notes. All changes will be seen only by you. Learn more »
launch autoscroll
font size
0
reset
guitar tuner
edit
Autoscroll
slow
fast
+/-
esc
set tempo
stop
Author
Difficulty
intro:
g|--------6\----4----------------|
d|---6---------------4/----------|
a|------4----2-------------------|
e|-4---4-----------2-------------| x2

chorus (hey miss murder can i...):
g|--------6\----4----------------|
d|---6---------------4/----------|
a|------4----2-------------------|
e|-4---4-----------2-------------| x3

g|-------------------------------|
d|-------------------------------|
a|-------------------------------|
e|-44-6-4-222--------------------|

intro fill:
g|-------------------------------|
d|-------------------------------|
a|----44-22----------------------|
e|-44-------22-------------------| x2

verse 1(with just a look...):
g|-------------------------------|
d|-----66-99-66-4444-------------|
a|-------------------6666--------|
e|--44---------------------------| x 2

verse fill:(the stars that pierce the sky...):
g|------------------------------------|
d|------------------------------------|
a|------------------------------------|
e|-44444444-2222-0000-44444444-2222-0-|

chorus

verse 2(dreams of his crash won't pass...):
g|-----------------------------|
d|-----------------------------|
a|-----------------------------|
g|-4444-66-99-6666-4444--------| x2
g|-----------------------------|
d|-----------------------------|
a|-----------------------------|
e|-44-44-44-44-----------------|

g|----------------------------------|
d|----------------------------------|
a|-----------------------10101010---|
g|-4444-66-99-6666-4444-------------|

verse fill
chorus

fill:
g|----------------------------|
d|----------------------------|
a|-22-----6-64-42-2-----------|
e|-----4-4---------44-4444444-|

Verse 3 (what's the hook, the twist within this verbose mystery...):
g|---------------------------------------------------|
d|---------------------------------------------------|
a|------6-64-42-2---6-64-4-22----6-64-42-2-----------|
e|---4-4---------4-4----------4-4---------44-4444444-|

g|--------------------------44-----------------------|
d|----------------------4-6--------------------------|
a|------6-64-42-2---6-64-4-------6-64-42-2-----------|
e|---4-4---------4-4----------4-4---------44-4444----|

g|--------------------------------|
d|--------------------------------|
a|-6-4-2--------------------------|
e|-------6-4----1/4---------------|

chorus x 2


It Looks Hard, But Its Easy After A While

Enjoy!
Suggest correction
Creating personal tab
Creating personal tab
You can edit any tab online and save it as your Personal.

You can edit, replace or remove any tab part or add personal notes – all changes will be seen only by you.

Personal tabs can be accessed anytime from any device, even offline.
Learn more »
Give kudos to tab author, rate the tab!
1 2 3 4 5
comments
print report bad tab
11 comments total. Showing first comments.
0 reply
Bert_Hastings 179 Oct 03, 2006 06:04 PM

this isn't the Wolfmother song

0 reply
TheBassRoxMySox 31 Oct 06, 2006 02:02 PM

dude....

bert
r u kinding me

yeah it is

0 reply
xKilltoBelievex 345 Oct 07, 2006 05:36 PM

TheBassRoxMySox, dude, its Miss Murder. Its a good tab though dude

guest
You may want to rate the tab now too:
select rating
Wanna post a correction for this tab? Suggest correction