Oops, an error
Loading. Please wait.

Wanderer Above The Sea Of Fog intro tab

version 1
version 1

Intro

Whole song

Interactive

3,180 views 1 this week
10 commentsread comments
1 2 3 4 5
1 last vote to show rating
add to favorites
×
Save as Personal and add changes to this tab that will be seen only by you. Learn more ›
×
You can save this tab as Personal to edit and correct it or add notes. All changes will be seen only by you. Learn more »
launch autoscroll
font size
0
reset
how to read this tab
guitar tuner
edit
Autoscroll
slow
fast
+/-
esc
set tempo
stop
Author
Wolves in the Throne Room-Wanderer Above the Sea of Fog

Here is the intro to Wanderer Above the Sea of Fog. Somebody posted this on the 
forum, I thought id repost it for convenience. 

Standard tuning. Tremolo Picking. You know how it is.
6/8

-------------------------------------------------------------|
-------------------------------------------------------------|
-------------------------------------------------------------|
--5-----4--------------5\4-----------------------------------|
--3-----2-----2--------2-2-----------------------------------|
--------------0----------------------------------------------|

Pretty easy, but as always sounds stunning.
Suggest correction
Creating personal tab
Creating personal tab
You can edit any tab online and save it as your Personal.

You can edit, replace or remove any tab part or add personal notes – all changes will be seen only by you.

Personal tabs can be accessed anytime from any device, even offline.
Learn more »
Give kudos to tab author, rate the tab!
1 2 3 4 5
comments
print report bad tab
10 comments total. Showing first comments.
0 reply
resum 141 Sep 09, 2010 10:46 AM

Haha dude, i posted it on forum.
Please finish it! :D
luv ya

0 reply
sheriff_nein 137 Sep 14, 2010 04:12 PM

i just might, that video would help me a lot if i ever bothered to look for it. only thing is im pretty awful at tabbing :p ill see what i can do

0 reply
resum 141 Mar 12, 2011 08:48 AM

---------------------------------------------------|
---------------------------------------------------|
---------------------------9---7-------------------|
----------8---7--------7---7---7-------------------|
--5---8---5---5---8----8---------------------------|
--6---6-----------10-------------------------------|

Here is the second riff. :)
You have to do the next solo/lead riff.

guest
You may want to rate the tab now too:
select rating
Wanna post a correction for this tab? Suggest correction