Oops, an error
Loading. Please wait.

Bullfight tab

version 2
version 2

Whole song

by Women
82 views 1 this week
no commentswrite comment
1 2 3 4 5
3 more votes to show rating
add to favorites
×
Save as Personal and add changes to this tab that will be seen only by you. Learn more ›
×
You can save this tab as Personal to edit and correct it or add notes. All changes will be seen only by you. Learn more »
launch autoscroll
font size
0
reset
how to read this tab
guitar tuner
edit
Autoscroll
slow
fast
+/-
esc
set tempo
stop
Author
Difficulty
-------------------------------------------------------------------------------
                             Bullfight - Women
-------------------------------------------------------------------------------
Tabbed by: me, with help from the original tab by ZorakIsStained.

Tuning: Both guitars are in Standard.

INTRO: [0:00-0:41]

Guitar 1: [comes in at 0:27]
e|----7----7-----|
B|----8----8-----|
G|---------------| x8
D|---------------|
A|---------------|
E|---------------|

VERSE 1: [0:41-0:56]

Guitar 1:
e|----7-----7-----|----10--|----8-----8-----|----8-----8-----|
B|----8-----8-----|----12--|----10----10----|----10----10----|
G|----------------|--------|----------------|----------------|  x2
D|----------------|--------|----------------|----------------|
A|----------------|--------|----------------|----------------|
E|----------------|--------|----------------|----------------|

Guitar 2:
e|----------------|--------|-13--13--13--13-|-13--13--13--13-|
B|----------------|--------|-13--13--13--13-|-13--13--13--13-|
G|----------------|-----16-|-14--14--14--14-|-14--14--14--14-|  x2
D|----------------|-19--19-|-15--15--15--15-|-15--15--15--15-|
A|-19--19--19-----|-0---0--|-15--15--15--15-|-15--15--15--15-|
E|-0---0---0------|--------|----------------|----------------|

CHORUS: [0:56-1:03]

Guitar 1:
e|----------------|--------|----------------|----------------|
B|----------------|--------|---------3------|-3--------------|
G|----------------|--------|-------------5--|-4--------------|  
D|-10--10--10--10-|-7---7--|-5---5----------|-5--------------|
A|-10--10--10--10-|-7---7--|-5---5----------|-5--------------|
E|-8---8---8---8--|-5---5--|-3---3----------|----------------| 

Guitar 2:
e|----------------|--------|-15--15--15--15-|-15--15--15--15-|
B|-13--13--13--13-|-13--13-|-0---0---0---0--|-0---0---0---0--|
G|-0---0---0---0--|-14--14-|-0---0---0---0--|-0---0---0---0--|  
D|-14--14--14--14-|-14--14-|-0---0---0---0--|-0---0---0---0--|
A|-15--15--15--15-|-0---0--|-14--14--14--14-|-14--14--14--14-|
E|----------------|--------|-15--15--15--15-|-15--15--15--15-|

VERSE 2: [1:03-1:18]

Guitar 1:
e|----7-----7-----|----10--|----8-----8-----|----8-----8-----|
B|----8-----8-----|----12--|----10----10----|----10----10----|
G|----------------|--------|----------------|----------------|  x2
D|----------------|--------|----------------|----------------|
A|----------------|--------|----------------|----------------|
E|----------------|--------|----------------|----------------|

Guitar 2:
e|----------------|--------|-13--13--13--13-|-13--13--13--13-|
B|----------------|--------|-13--13--13--13-|-13--13--13--13-|
G|----------------|-16--16-|-14--14--14--14-|-14--14--14--14-|  x2
D|----------------|-19--19-|-15--15--15--15-|-15--15--15--15-|
A|-19-----19--19--|-0---0--|-15--15--15--15-|-15--15--15--15-|
E|-0------0---0---|--------|----------------|----------------|

CHORUS: [1:18-1:43]

Guitar 1:
e|----------------|--------|----------------|-------------|
B|----------------|--------|-3--------------|-------------|
G|----------------|-5---5--|-4--------------|-------------|  
D|-10--10--10--10-|-7---7--|-5--------------|-------------|
A|-10--10--10--10-|-7---7--|-5--------------|-------------|
E|-8---8---8---8--|-5---5--|-3--------------|-------------| 

Guitar 2:
e|----------------|--------|-15--15--15--15-|-15--15--15--|
B|-13--13--13--13-|-13--13-|-0---0---0---0--|-0---0---0---|
G|-0---0---0---0--|-14--14-|-0---0---0---0--|-0---0---0---|  
D|-14--14--14--14-|-14--14-|-0---0---0---0--|-0---0---0---|
A|-15--15--15--15-|-0---0--|-14--14--14--14-|-14--14--14--|
E|----------------|--------|-15--15--15--15-|-15--15--15--|

Guitar 1:
e|----------------|-------------------------|        |-------------------------|
B|----------------|-------------------------|        |-------------------------|
G|----------------|-------------------------|        |-------------------------|
D|-12---------10--|-3--3--3--3--3--3--3--3--|   x2   |-3--3--3--3--3--3--3--3--|
A|-12---------10--|-3--3--3--3--3--3--3--3--|        |-3--3--3--3--3--3--3--3--| 
E|-10---------8---|-1--1--1--1--1--1--1--1--|        |-1--1--1--1--1--1--1--1--|

Guitar 2:        
e|-14-------------|-------------------------|        |-------------------------|
B|-15---------17--|-13----------------------|        |-------------------------|   
G|-14---------0---|-14----------------------|        |-------------------------|
D|------------14--|--x----------------------|   x2   |-------------------------|
A|------------15--|--x----------------------|        |-------------------------|
E|----------------|-13-13-13-13-13-13-13-13-|        |-13-13-13-13-13-13-13-13-|

Guitar 1:
e|----------------|--------|----------------|----------------|
B|----------------|--------|-3--------------|----------------|
G|----------------|-5---5--|-4--------------|----------------|  
D|-10--10--10--10-|-7---7--|-5--------------|----------------|
A|-10--10--10--10-|-7---7--|-5--------------|----------------|
E|-8---8---8---8--|-5---5--|-3--------------|----------------| 

Guitar 2:
e|----------------|--------|-15--15--15--15-|-15--15--15--15-|
B|-13--13--13--13-|-13--13-|-0---0---0---0--|-0---0---0---0--|
G|-0---0---0---0--|-14--14-|-0---0---0---0--|-0---0---0---0--|  
D|-14--14--14--14-|-14--14-|-0---0---0---0--|-0---0---0---0--|
A|-15--15--15--15-|-0---0--|-14--14--14--14-|-14--14--14--14-|
E|----------------|--------|-15--15--15--15-|-15--15--15--15-|

BREAK: [1:43-2:15]
You can see (and hear) Pat's part at 1:38 here: https://www.youtube.com/watch?v=Kxmbun2svac

Guitar 1:
e|----7----7-----|
B|----8----8-----|
G|---------------| x8
D|---------------|
A|---------------|
E|---------------|

Guitar 1:
e|----7-----7-----|----10--|
B|----8-----8-----|----12--|
G|----------------|--------|
D|----------------|--------|
A|----------------|--------|
E|----------------|--------|

Guitar 1:
E|-----------------12--------------|-------------------------17------|
B|-------------------13------------|---------------------------------|
G|---------------------14----------|-------------------17------------|
D|-----------------------14-12-----|----------------15----15---------|
A|---------------------------------|---------------------------------|
E|-13--12--------------------------|-15\12-12------------------------|

Guitar 2:
E|---------0---------------0-------|---------0----------0------------|
B|-------------13--------------12--|-------------5------0------------|
G|---------------------------------|---------------------------------|
D|---------------------------------|---------------------------------|
A|---------------------------------|---------------------------------|
E|-13--12----------10--8-----------|-7---5-----------5---------------|

Guitar 1:
e|----7-----7-----|----10--|
B|----8-----8-----|----12--|
G|----------------|--------|
D|----------------|--------|
A|----------------|--------|
E|----------------|--------|

Guitar 1:
E|-----------------12--------------|---------------------------------|
B|-------------------13------------|---------------------------------|
G|---------------------------------|-------------------17----16------|
D|---------------------14-14-12----|----------------14----14---------|
A|---------------------------------|---------------------------------|
E|-13--12--------------------------|-15\12-12------------------------|

Guitar 2:
E|---------0---------------0-------|---------0----------0------------|
B|-------------13--------------12--|-------------5------0------------|
G|---------------------------------|---------------------------------|
D|---------------------------------|---------------------------------|
A|---------------------------------|---------------------------------|
E|-13--12----------10--8-----------|-7---5-----------5---------------|

CHORUS: [2:15-2:39]

Guitar 1:
e|----------------|--------|----------------|----------------|
B|----------------|--------|---------3------|-3--------------|
G|-9--------------|-5---5--|-4-----------5--|-4--------------|  
D|-10------10--10-|-7---7--|-5---5----------|-5--------------|
A|-10------10--10-|-7---7--|-5---5----------|-5--------------|
E|-8-------8---8--|-5---5--|-3---3----------|----------------| 

Guitar 2:
e|----------------|--------|-15--15--15--15-|-15--15--15--15-|
B|-13--13--13--13-|-13--13-|-0---0---0---0--|-0---0---0---0--|
G|-0---0---0---0--|-14--14-|-0---0---0---0--|-0---0---0---0--|  
D|-14--14--14--14-|-14--14-|-0---0---0---0--|-0---0---0---0--|
A|-15--15--15--15-|-0---0--|-14--14--14--14-|-14--14--14--14-|
E|----------------|--------|-15--15--15--15-|-15--15--15--15-|

Guitar 1:
e|----------------|--------|----------------|-------------|
B|----------------|--------|-3--------------|-------------|
G|----------------|-5---5--|-4--------------|-------------|  
D|-10--10--10--10-|-7---7--|-5--------------|-------------|
A|-10--10--10--10-|-7---7--|-5--------------|-------------|
E|-8---8---8---8--|-5---5--|-3--------------|-------------| 

Guitar 2:
e|----------------|--------|-15--15--15--15-|-15--15--15--|
B|-13--13--13--13-|-13--13-|-0---0---0---0--|-0---0---0---|
G|-0---0---0---0--|-14--14-|-0---0---0---0--|-0---0---0---|  
D|-14--14--14--14-|-14--14-|-0---0---0---0--|-0---0---0---|
A|-15--15--15--15-|-0---0--|-14--14--14--14-|-14--14--14--|
E|----------------|--------|-15--15--15--15-|-15--15--15--|

Guitar 1:
e|----------------|-------------------------|        |-------------------------|
B|----------------|-------------------------|        |-------------------------|
G|----------------|-------------------------|        |-------------------------|
D|-12---------10--|-3--3--3--3--3--3--3--3--|   x2   |-3--3--3--3--3--3--3--3--|
A|-12---------10--|-3--3--3--3--3--3--3--3--|        |-3--3--3--3--3--3--3--3--| 
E|-10---------8---|-1--1--1--1--1--1--1--1--|        |-1--1--1--1--1--1--1--1--|

Guitar 2:        
e|-14-------------|-------------------------|        |-------------------------|
B|-15---------17--|-13----------------------|        |-------------------------|   
G|-14---------0---|-14----------------------|        |-------------------------|
D|------------14--|--x----------------------|   x2   |-------------------------|
A|------------15--|--x----------------------|        |-------------------------|
E|----------------|-13-13-13-13-13-13-13-13-|        |-13-13-13-13-13-13-13-13-|

OUTRO: [2:39-3:09]

Guitar 1:
e|----------------|--------|----------------|----------------|
B|----------------|--------|----------------|----------------|
G|-9--------------|-5---5--|-4--------------|----------------|
D|-10------10--10-|-7---7--|-5--------------|----------------|
A|-10------10--10-|-7---7--|-5--------------|----------------|
E|-8-------8---8--|-5---5--|-3--------------|----------------|

Guitar 2:
e|----------------|--------|-15--15--15--15-|-15--15--15--15-|
B|-13--13--13--13-|-13--13-|-0---0---0---0--|-0---0---0---0--|
G|-0---0---0---0--|-14--14-|-0---0---0---0--|-0---0---0---0--|
D|-14--14--14--14-|-14--14-|-0---0---0---0--|-0---0---0---0--|
A|-15--15--15--15-|-0---0--|-14--14--14--14-|-14--14--14--14-|
E|----------------|--------|-15--15--15--15-|-15--15--15--15-|

Guitar 1:
e|----------------|--------|----------------|----------------|
B|----------------|--------|----------------|----------------|
G|-9--------------|-5---5--|-4--------------|----------------|
D|-10------10--10-|-7---7--|-5--------------|----------------|
A|-10------10--10-|-7---7--|-5--------------|----------------|
E|-8-------8---8--|-5---5--|-3--------------|----------------|

Guitar 2:
e|----------------|--------|-15--15--15--15-|-15--15--15--15-|
B|-13--13--13--13-|-13--13-|-0---0---0---0--|-0---0---13--13-|
G|-0---0---0---0--|-14--14-|-0---0---0---0--|-0---0---0---0--|
D|-14--14--14--14-|-14--14-|-0---0---0---0--|-0---0---0---0--|
A|-15--15--15--15-|-0---0--|-14--14--14--14-|-14--14--14--14-|
E|----------------|--------|-15--15--15--15-|-15--15--15--15-|

Guitar 1:
e|----------------|--------|----------------|----------------|
B|----------------|--------|----------------|----------------|
G|-2--------------|-5---5--|-4--------------|----------------| x2
D|-3------3-------|-7---7--|-5--------------|----------------|
A|-3------3-------|-7---5--|-5--------------|----------------|
E|-1------1-------|-5---5--|-3--------------|----------------|

Guitar 2:
e|----------------|--------|-15--15--15--15-|-15--15--15--15-|
B|-13--13--13--13-|-13--13-|-0---0---0---0--|-0---0---0---0--|
G|-14--14--14--14-|-14--14-|-0---0---0---0--|-0---0---0---0--| x2
D|-15--15--15--15-|-14--14-|-0---0---0---0--|-0---0---0---0--|
A|-15--15--15--15-|-0---0--|-14--14--14--14-|-14--14--14--14-|
E|----------------|--------|-15--15--15--15-|-15--15--15--15-|

[3:09-end]:

Guitar 1:
e|----------------|--------|-15--15--15--15-|-15--15--15--15-|
B|-13--13--13--13-|-13--13-|-0---0---0---0--|-0---0---0---0--|
G|-0---0---0---0--|-14--14-|-0---0---0---0--|-0---0---0---0--|
D|-14--14--14--14-|-14--14-|-0---0---0---0--|-0---0---0---0--|
A|-15--15--15--15-|-0---0--|-14--14--14--14-|-14--14--14--14-|
E|----------------|--------|-15--15--15--15-|-15--15--15--15-|

Guitar 2:
e|-12--12--12--12-|-17--17-|-15--15--15--15-|-15--15--15--15-|
B|-13--13--13--13-|-13--13-|-0---0---0---0--|-0---0---0---0--|
G|-0---0---0---0--|-14--14-|-0---0---0---0--|-0---0---0---0--|
D|-14--14--14--14-|--------|-0---0---0---0--|-0---0---0---0--|
A|----------------|--------|-14--14--14--14-|-14--14--14--14-|
E|----------------|--------|-15--15--15--15-|-15--15--15--15-|


            
            
Suggest correction
Creating personal tab
Creating personal tab
You can edit any tab online and save it as your Personal.

You can edit, replace or remove any tab part or add personal notes – all changes will be seen only by you.

Personal tabs can be accessed anytime from any device, even offline.
Learn more »
Give kudos to tab author, rate the tab!
1 2 3 4 5
comments
print report bad tab
guest
You may want to rate the tab now too:
select rating
Wanna post a correction for this tab? Suggest correction