Oops, an error
Loading. Please wait.

Drag Open tab

version 2
version 2

Whole song

by Women
384 views 6 this week
no commentswrite comment
1 2 3 4 5
2 more votes to show rating
add to favorites
×
Save as Personal and add changes to this tab that will be seen only by you. Learn more ›
×
You can save this tab as Personal to edit and correct it or add notes. All changes will be seen only by you. Learn more »
launch autoscroll
font size
0
reset
how to read this tab
guitar tuner
edit
Autoscroll
slow
fast
+/-
esc
set tempo
stop
-------------------------------------------------------------------------------
                             Drag Open - Women
-------------------------------------------------------------------------------
Tuning:
Guitar 1 (Left channel): C#C#C#C#C#C#
Guitar 2 (Right channel): Standard EADGBe

E < C#3
A > C#4
D < C#4
G < C#4  - So basically, tune down all strings to C# except A and B which you tune up.
B > C#5    Watch out for string breakage though. I usually tune it to all B and then put a capo on the 2nd fret.
e < C#5

Intro:
Guitar 1 strums behind the bridge for the whole verse. 
You need a Jazzmaster for this, but if you don't have one you can play something like this:

C#|-8-------8-------8-------8-------|
C#|-9-------9-------9-------9-------|
C#|-0-------0-------0-------0-------|
C#|---------------------------------|
C#|---------------------------------|
C#|---------------------------------|

Guitar 2: (comes in at 0:16)
Quickly strum this chord while bending and moving up and down the neck. Just make noise.
E|-----|
B|-16--|
G|-18--| Like: https://gyazo.com/b6b99987b17024489f9722493d9e0b10
D|-----|
A|-----|
E|-17--|

Verse:

Guitar 1:
C#|-9--9--9--9--9--9--9--9--|
C#|-9--9--9--9--9--9--9--9--|
C#|-------------------------| Repeat. Bend one of the notes every now and then.
C#|-------------------------|
C#|-------------------------|
C#|-------------------------|

Guitar 2:
E|-------------------------|
B|-------------------------|
G|-------------------------|
D|-------------------------| Repeat.
A|-------------------------|
E|-18----18----18----18----|

Chorus(repeat twice):

Guitar 1:
C#|---------------------------------|   |---------------------------------|
C#|---------------------------------|   |---------------------------------|
C#|-10--10--10--10--10--10--10--10--|   |-8---8---8---8---8---8---8---8---|
C#|-10--10--10--10--10--10--10--10--| x2|-8---8---8---8---8---8---8---8---| x2
C#|-8---8---8---8---8---8---8---8---|   |-6---6---6---6---6---6---6---6---|
C#|-8---8---8---8---8---8---8---8---|   |-6---6---6---6---6---6---6---6---|

C#|---------------------------------|
C#|---------------------------------|
C#|-12--12--12--12--12--12--12--12--|
C#|-12--12--12--12--12--12--12--12--| x4
C#|-10--10--10--10--10--10--10--10--|
C#|-10--10--10--10--10--10--10--10--|

C#|--------------------------------|---------------------------------|
C#|--------------------------------|---------------------------------|
C#|-17--17-x-15----15--15--15--15--|-15--15--15--15--15--15--15--15--|
C#|-17--17-x-15----15--15--15--15--|-15--15--15--15--15--15--15--15--| x2
C#|-15--15-x-13----13--13--13--13--|-13--13--13--13--13--13--13--13--|
C#|-15--15-x-13----13--13--13--13--|-13--13--13--13--13--13--13--13--|

Guitar 2:
E|---------------------------------|    |---------12--------------12------|
B|-8---8---8---8---8---8---8---8---|    |-0---0---0---0---0---0---0---0---|
G|-11--11--11--11--11--11--11--11--|    |-11--11--11--11--11--11--11--11--|
D|-9---9---9---9---9---9---9---9---| x2 |-10--10--10--10--10--10--10--10--| x2
A|-10--10--10--10--10--10--10--10--|    |-10--10--10--10--10--10--10--10--|
E|---------------------------------|    |---------------------------------|

E|-14--14--14--14--14--14--14--14--|
B|-14--14--14--14--14--14--14--14--|
G|-0---0---0---0---0---0---0---0---| x4
D|-12--12--12--12--12--12--12--12--|
A|---------------------------------|
E|---------------------------------|

E|---------------------------------|---------------------------------|
B|---------------------------------|---------------------------------|
G|---------------------------------|---------------------------------|
D|-14--14-x-12-----12--12--12--12--|-12--12--12--12--12--12--12--12--| x2
A|---------------------------------|---------------------------------|
E|-12--12-x-10-----10--10--10--10--|-10--10--10--10--10--10--10--10--|

Verse 2 (3/4 Time signature):
Guitar 1 plays the same as verse 1.

Guitar 2 comes in after a while:
E|--------------------|-------------------|
B|--------------------|-------------------|
G|--------------------|-------------------|
D|--------------------|-------------------| Repeat.
A|-------8--10--------|-------------6--8--|
E|-8--8---------6--6--|-6--4--4--4--------|

Play the chorus again.

Break: 
Just play anything and it will sound correct. But it's something like this:

Guitar 1: Tremolo pick all chords:
C#|--6----9---4--------6----|
C#|--7----10--5--------7----|
C#|-------------------------| 
C#|-------------------------| Repeat
C#|-------------------------|
C#|-------------------------|

Guitar 2: Tremolo pick all chords
E|--0----21--20----------|
B|-16----16--16----14----|
G|-19----19--19----17----|
D|-----------------------| Repeat
A|-----------------------|
E|-19----19--19----16----|

Outro (3/4 Time signature): (The guitars switch panning here so Guitar 1 is on the right etc.)

This fades in after all the noise.
Guitar 1 (repeat throughout):
C#|-------------------------|-------------------------|-------------------------|
C#|-11----------9--11--9----|-------------4-----------|-----4-------------------|
C#|-----0---0---------------|-----------------4-------|-6-------6---0---4-------|
C#|-------------------------|-0-------2-----------0---|-6-------6---0---4-------|
C#|-------------------------|-------------------------|-0-------0-------4-------|
C#|-------------------------|-------------------------|-----------------0-------|

C#|-------------------------|-------------------------|
C#|-------------------------|-------------------------|
C#|---------16--16--16--16--|-16--16--16--12--14--16--|
C#|---------16--16--16--16--|-16--16--16--12--14--16--| Play on the 14th fret the second time around.
C#|-0---0---0---0---0---0---|-0---0---0---0---0---0---|
C#|-0---0---0---0---0---0---|-0---0---0---0---0---0---|

Guitar 2:
E|-------------------------|-------------------------|-------------------------|
B|-------------------------|-------------------------|-------------------------|
G|-------------------------|-----12------------------|-------------------------|
D|-------------------------|-------------13----------|-------------------------|
A|-------------13------13--|-11----------------------|-13--15------------------|
E|-18-\16--16------16------|---------------------13--|---------15--------------|

E|-------------------------|---------------------13--|
B|----------18-------------|-----------------16------|
G|-------------------------|-------------------------|
D|-------------------------|-------------15----------|
A|-------------------------|-------------------------|
E|-------------------------|-------------------------|

When the drums kick in, Guitar 2 changes to this:
E|-------------------------|-------------------------|-------------------------|
B|-------------------------|-------------------------|-------------------------|
G|-------------------------|-----12------------------|-------------------------|
D|-------------------------|-------------13----------|-------------------------|
A|-------------13------13--|-11----------------------|-13--15------------------|
E|-18-\16--16------16------|---------------------13--|---------15--------------|

E|-------------------------|---------------------13--|
B|-18----------------------|-----------------16------|
G|---------17------15------|-------------------------|
D|-------------------------|-------------15----------|
A|---------15------13------|-------------------------|
E|-------------------------|-------------------------|

************************************

| /   slide up
| \   slide down
| h   hammer-on
| p   pull-off
| ~   vibrato
| +   harmonic
| x   Mute note
| b   Bend
| pb  Pre-bend
| br  Bend release
| pbr Pre-bend release
| brb Bend release bend

************************************

            
            
Suggest correction
Creating personal tab
Creating personal tab
You can edit any tab online and save it as your Personal.

You can edit, replace or remove any tab part or add personal notes – all changes will be seen only by you.

Personal tabs can be accessed anytime from any device, even offline.
Learn more »
Give kudos to tab author, rate the tab!
1 2 3 4 5
comments
print report bad tab
guest
You may want to rate the tab now too:
select rating
Wanna post a correction for this tab? Suggest correction