Oops, an error
Loading. Please wait.

Eyesore tab

by Women
7,303 views 33 this week
2 commentsread comments
1 2 3 4 5
x 10
add to favorites
×
Save as Personal and add changes to this tab that will be seen only by you. Learn more ›
×
You can save this tab as Personal to edit and correct it or add notes. All changes will be seen only by you. Learn more »
launch autoscroll
font size
0
reset
how to read this tab
guitar tuner
edit
Autoscroll
slow
fast
+/-
esc
set tempo
stop
Author
Eyesore
by Women from the album Public Strain

Tab by ZorakIsStained
soniclife19@gmail.com

Some corrections made by gingerbear and billybusa. 
I've taken some rhythmic liberties but this isn't far off.
Enjoy.


Intro:

Guitar 1 (Pat):
e|-7-----7-9-----9-|-------0-------0--|
B|-----------------|-----3-------3(0)-|
G|-7-----7-9-----9-|---6-------6------|
D|-----------------|---6-------6------|
A|-----------------|------------------|
E|---7-7-----7-7---|-0-------0--------| 
                   
Guitar 2 (Chris):
(Enters a few bars after Guitar 1)
e|-7-----7-9-----9-|-----------------------|
B|-----------------|---------12------------|
G|-7-----7-9-----9-|-----------------------| 
D|-----------------|-------12--------12-11-|
A|-----------------|-12-11-----12-11-0-----|
E|---7-7-----7-7---|--0----10--0-----------|

Verse(played twice):

Guitar 1:
e|---9---9---------|---9---9---------|-----------------|-----------------|
B|-----------9-----|-----------9-----|-----------------|-----------------|
G|-----9---------6-|-----9---------6-|---9---9---9---9-|---7---7---7---7-|
D|---------7---9---|---------7---9---|-----6-------6---|-----6-------6---|
A|-0---------------|-0---------------|-----------------|-----------------|
E|-----------------|-----------------|-0-------0-------|-0-------0-------| 

Guitar 2:
e|-----------------|-----------------|-----------------|----16----16--16-|
B|----17----17--17-|----17----17--17-|----17----17--17-|----17----17--17-|
G|----18----18--18-|----18----18--18-|----16----16--16-|----16----16--16-|
D|----19----19--19-|----19----19--19-|----18----18--18-|----18----18--18-|
A|----19----19--19-|----19----19--19-|-----------------|-----------------|
E|-----------------|-----------------|-----------------|-----------------|

Guitar 1:
e|------------------------|----------------------|-----------------|--------------2-|
B|---10----------14-------|---10---------8-------|-----------------|------------1---|
G|------------------------|----------------------|---7-------7-----|----------2-----|
D|------11----------14----|------11---------9----|-----7-9-----9---|--------0-------|
A|-9-------9--12-------12-|-9-------9--7------7--|---------------9-|-0--------------|
E|------------------------|----------------------|-7---------------|----------------|

Guitar 2:
e|------------------------|----------------------|-----------------|--------------2-|
B|------19-------19----19-|------19------19--19--|-19--------------|------------1---|
G|------18-------18----18-|------18------18--18--|---18--16----16--|----------2-----|
D|------19-------19----19-|------19------19--19--|-----19----19--19|--------0-------|
A|------------------------|----------------------|-----------------|-0--------------|
E|------------------------|----------------------|-----------------|----------------|

^^ Last bar is played the 2nd time only.

Chorus:

Guitar 1:
e|-----------------|-----------------|
B|-----3-------3---|-----5-------5---|
G|-----------------|-----------------| X2
D|---3---3---3---3-|---5---5---5---5-|
A|-1-------1-------|-3-------3-------|
E|-----------------|-----------------|

Guitar 2:
e|-----------------|-----------------|
B|-------3-----3---|-------5-----5---|
G|-----------------|-----------------| X2
D|-----3-----3---3-|-----5-----5---5-|
A|-1---------------|-3---------------|
E|-----------------|-----------------|

Guitar 1
e|-----------------|-----------------|-----------------|-----------------|
B|-----15------15--|-17------18------|-20~-------------|-22~-------------|
G|-----------------|-----------------|-20~-------------|-22~-------------|
D|---15--15--15--15|-17------19------|-20~-------------|-22~-------------|
A|-13------13------|-15------17------|-18~-------------|-20~-------------|
E|-----------------|-----------------|-----------------|-----------5-6-8-|

Guitar 2
e|-----------------|-----------------|-----------------|-----------------|
B|-------3-----3---|-5-------6-------|-8~--------------|-10~-------------|
G|-----------------|-----------------|-----------------|-----------------|
D|-----3-----3---3-|-5-------7-------|-8~--------------|-10~-------------|
A|-1---------------|-3-------5-------|-6~--------------|-8~--------------|
E|-----------------|-----------------|-----------------|-----------5-6-8-|

Guitar 1:
e|--------10------------10------|---------10--------------10------|
B|------------------------------|---------------------------------|
G|----10------------10----------|-----10--------------10----------|
D|------------------------------|---------------------------------|
A|-10--------10--8---------8----|---------------------------------|
E|------------------------------|-10----------10--8-----------8---|

Guitar 2:
e|--------10------------10------|---------10--------------10------|
B|------------------------------|---------------------------------|
G|----10------------10----------|-----10--------------10----------|
D|------------------------------|-8------------8--7-----------7---|
A|-10--------10--8---------8----|---------------------------------|
E|------------------------------|---------------------------------|

Guitar 1:
e|-----------------|-----------------|
B|-20~-------------|-22~-------------|
G|-20~-------------|-22~-------------|
D|-20~-------------|-22~-------------|
A|-18~-------------|-20~-------------|
E|-----------------|-----------5-6-8-|

Guitar 2:
e|-----------------|-----------------|
B|-8~--------------|-10~-------------|
G|-----------------|-----------------|
D|-8~--------------|-10~-------------|
A|-6~--------------|-8~--------------|
E|-----------------|-----------5-6-8-|

Guitar 1:
e|--------10------------10------|---------10-------------10------|
B|------------------------------|--------------------------------|
G|----10------------10----------|-----10-------------10----------|
D|------------------------------|--------------------------------|
A|-10--------10--8---------8----|--------------------------------|
E|------------------------------|-10----------10--8----------8---|

Guitar 2:
e|--------10------------10------|---------10-------------10------|
B|------------------------------|--------------------------------|
G|----10------------10----------|-----10-------------10----------|
D|------------------------------|-8------------8--7----------7---|
A|-10--------10--8---------8----|--------------------------------|
E|------------------------------|--------------------------------|

Both guitars:
e|-----------------|-----------------|
B|-----------------|-----------------|
G|-----------------|-----------------|
D|-----------------|-----------------|
A|-6-5-------------|-----------------|
E|-------6-8---10--|-5---------5-6-8-|

Break:

Guitar 1:
First time through starts as just guitar 1 and guitar 2 joins a few bars in.

e|--------10------------10----|---------10-------------10-----|
B|----------------------------|-------------------------------|
G|----10------------10--------|-----10-------------10---------|
D|----------------------------|-8-----------8--7-----------7--|
A|-10--------10--8---------8--|-------------------------------|
E|----------------------------|-------------------------------|

e|--------10------------10----|---------10-------------10-----|
B|----------------------------|-------------------------------|
G|----10------------10--------|-----10-------------10---------|
D|----------------------------|-------------------------------|
A|----------------------------|-10----------10--8---------8---|
E|-10--------10--8---------8--|-------------------------------|

e|--------10------------10----|---------10-------------10-----|
B|----------------------------|-------------------------------|
G|----10-------------10-------|-----10-------------10---------|
D|-8----------8---7--------7--|-------------------------------|
A|----------------------------|-7-----------8-----------------|
E|----------------------------|----------------10---------10--|

Repeat the break, then:
e|--------10--------------------|
B|------------------------------|
G|----10------------------------|
D|------------------------------|
A|------------------------------|
E|-6---------6---7~-------------|

Repeat verse and chorus once.

Outro: (3:19)

Guitar 1 (repeat until the end)
e|--------10------------10----|---------10-------------10-----|
B|----------------------------|-------------------------------|
G|----10------------10--------|-----10-------------10---------|
D|----------------------------|-8-----------8--7-----------7--|
A|-10--------10--8---------8--|-------------------------------|
E|----------------------------|-------------------------------|

e|--------10------------10----|---------10-------------10-----|
B|----------------------------|-------------------------------|
G|----10------------10--------|-----10-------------10---------|
D|----------------------------|-------------------------------|
A|----------------------------|-10----------10--8---------8---|
E|-10--------10--8---------8--|-------------------------------|

e|--------10------------10----|---------10-------------10-----|
B|----------------------------|-------------------------------|
G|----10-------------10-------|-----10-------------10---------|
D|-8----------8---7--------7--|-------------------------------|
A|----------------------------|-7-----------8-----------------|
E|----------------------------|----------------10---------8---|

Guitar 2 plays these chords:

F (8th fret) A# (6th fret) Gm (10th fret) Dm (5th fret)

occasionally switching to 

F (8th fret) A# (6th fret) X2   C (8th fret)

That's it

            
            
Suggest correction
Creating personal tab
Creating personal tab
You can edit any tab online and save it as your Personal.

You can edit, replace or remove any tab part or add personal notes – all changes will be seen only by you.

Personal tabs can be accessed anytime from any device, even offline.
Learn more »
comments
print report bad tab
2 comments total.
0 reply
ZorakIsStained 130 Dec 09, 2011 06:04 AM

In Part E the second bar should be

e| - - - - 10- - - - - - - 10- - - | 
B| - - - - - - - - - - - - - - - - |
G| - - 10- - - - - - - 10- - - - - |
D| 8 - - - - - 8 - 7 - - - - - 7 - |
A| - - - - - - - - - - - - - - - - |
E| - - - - - - - - - - - - - - - - |


Also, only guitar 1 plays part E for the first few lines and guitar 2 enters towards the end. There are a couple more mistakes but nothing the reader can't find on their own.

0 reply
billybusa 6,379 Oct 30, 2015 05:24 PM

I made some corrections. I also cleaned up the spacing and lined the guitars up for easier reading.

Fantastic tab nonetheless!

guest
You may want to rate the tab now too:
select rating
Wanna post a correction for this tab? Suggest correction