Oops, an error
Loading. Please wait.

Narrow With The Hall tab

by Women
85 views 6 this week
no commentswrite comment
1 2 3 4 5
3 more votes to show rating
add to favorites
×
Save as Personal and add changes to this tab that will be seen only by you. Learn more ›
×
You can save this tab as Personal to edit and correct it or add notes. All changes will be seen only by you. Learn more »
launch autoscroll
font size
0
reset
how to read this tab
guitar tuner
edit
Autoscroll
slow
fast
+/-
esc
set tempo
stop
So if you know Women, you might know Pat often played his chords in a strange manner so I'm not sure
if what's here matches exactly, especially given all the noise, but the chords are likely the correct ones.
You may want to experiment with playing in different positions up and down the neck to match the timbre.

The gist of this is:
B E F#m E B G A E B (x2)
B E (x4)
B E F#m E B G A E B A E B
C#m F# B A (x2)
C#m
B A C#m (x2)

[Verse 1]      
e|-----------------|-----------------|-----------------|-----------------|---------|
B|-7---7---7---7---|-9---9---9---9---|-9---9---10--10--|-9---9---7---7---|-4---4---|
G|-8---8---8---8---|-9---9---9---9---|-9---9---11--11--|-9---9---8---8---|-5---5---|
D|-9---9---9---9---|-9---9---9---9---|-9---9---11--11--|-9---9---9---9---|-6---6---|
A|-9---9---9---9---|-7---7---7---7---|-7---7---9---9---|-7---7---9---9---|-6---6---|
E|-----------------|-----------------|-----------------|-----------------|---------|         

e|-----------------|-----------------|-----------------|-----------------|
B|-5---5---5---5---|-9---9---9---9---|-7---7---7---7---|-7---7---7---7---|
G|-6---6---6---6---|-9---9---9---9---|-8---8---8---8---|-8---8---8---8---|
D|-7---7---7---7---|-9---9---9---9---|-9---9---9---9---|-9---9---9---9---|
A|-7---7---7---7---|-7---7---7---7---|-9---9---9---9---|-9---9---9---9---|
E|-----------------|-----------------|-----------------|-----------------|

e|-----------------|-----------------|-----------------|-----------------|---------|
B|-7---7---7---7---|-9---9---9---9---|-9---9---10--10--|-9---9---7---7---|-4---4---|
G|-8---8---8---8---|-9---9---9---9---|-9---9---11--11--|-9---9---8---8---|-5---5---|
D|-9---9---9---9---|-9---9---9---9---|-9---9---11--11--|-9---9---9---9---|-6---6---|
A|-9---9---9---9---|-7---7---7---7---|-7---7---9---9---|-7---7---9---9---|-6---6---|
E|-----------------|-----------------|-----------------|-----------------|---------|                       

e|-----------------|-----------------|-----------------|-----------------|
B|-5---5---5---5---|-9---9---9---9---|-7---7---7---7---|-7---7---7---7---|
G|-6---6---6---6---|-9---9---9---9---|-8---8---8---8---|-8---8---8---8---|
D|-7---7---7---7---|-9---9---9---9---|-9---9---9---9---|-9---9---9---9---|
A|-7---7---7---7---|-7---7---7---7---|-9---9---9---9---|-9---9---9---9---|
E|-----------------|-----------------|-----------------|-----------------|

(Play the single notes with staccato)
e|-----------------|-----------------|-----------------|-----------------|-----------------|
B|-----------------|-----------------|-----------------|---------12--12--|-12--12--12--12--|
G|-----------------|-----------------|-----------------|(9)------13--13--|-13--13--13--13--|
D|-----------------|-----------------|-11--11----------|-9---14--14--14--|-14--14--14--14--|
A|-14--14--14--14--|-12--12--12--12--|-16--16---9---9--|-14--14--14--14--|-14--14--14--14--|
E|-19--19--19--19--|-17--17--17--17--|----------14--14-|-----------------|-----------------|

[Interlude]
e|-----------------|-----------------|-----------------|-----------------|
B|-7---7---7---7---|-9---9---9---9---|-7---7---7---7---|-9---9---9---9---|
G|-8---8---8---8---|-9---9---9---9---|-8---8---8---8---|-9---9---9---9---|
D|-9---9---9---9---|-9---9---9---9---|-9---9---9---9---|-9---9---9---9---|  (x2)
A|-9---9---9---9---|-7---7---7---7---|-9---9---9---9---|-7---7---7---7---|
E|-----------------|-----------------|-----------------|-----------------|

[Verse 2]
e|-----------------|-----------------|-----------------|-----------------|---------|
B|-7---7---7---7---|-9---9---9---9---|-9---9---10--10--|-9---9---7---7---|-4---4---|
G|-8---8---8---8---|-9---9---9---9---|-9---9---11--11--|-9---9---8---8---|-5---5---|
D|-9---9---9---9---|-9---9---9---9---|-9---9---11--11--|-9---9---9---9---|-6---6---|
A|-9---9---9---9---|-7---7---7---7---|-7---7---9---9---|-7---7---9---9---|-6---6---|
E|-----------------|-----------------|-----------------|-----------------|---------|                     

e|-----------------|-----------------|-----------------|-----------------|
B|-5---5---5---5---|-9---9---9---9---|-7---7---7---7---|-7---7---7---7---|
G|-6---6---6---6---|-9---9---9---9---|-8---8---8---8---|-8---8---8---8---|
D|-7---7---7---7---|-9---9---9---9---|-9---9---9---9---|-9---9---9---9---|
A|-7---7---7---7---|-7---7---7---7---|-9---9---9---9---|-9---9---9---9---|
E|-----------------|-----------------|-----------------|-----------------|

e|-----------------|-----------------|-----------------|-----------------|
B|-5---5---5---5---|-9---9---9---9---|-7---7---7---7---|-7---7---7---7---|
G|-6---6---6---6---|-9---9---9---9---|-8---8---8---8---|-8---8---8---8---|
D|-7---7---7---7---|-9---9---9---9---|-9---9---9---9---|-9---9---9---9---|
A|-7---7---7---7---|-7---7---7---7---|-9---9---9---9---|-9---9---9---9---|
E|-----------------|-----------------|-----------------|-----------------|

e|-----------------|-----------------|-----------------|-----------------|-----------------|
B|-----------------|-----------------|-----------------|---------12--12--|-12--12--12--12--|
G|-----------------|-----------------|-----------------|(9)------13--13--|-13--13--13--13--|
D|-----------------|-----------------|-11--11----------|-9---14--14--14--|-14--14--14--14--|
A|-14--14--14--14--|-12--12--12--12--|-16--16---9---9--|-14--14--14--14--|-14--14--14--14--|
E|-19--19--19--19--|-17--17--17--17--|----------14--14-|-----------------|-----------------|

[Verse 3]
(Reimer's monstrous feedback takes over here, so it's hard to tell what's going on here, but
to me it sounds loosely like this:)
e|---4---4---4---4-|---4---4---4---4-|---9---9---9---9-|---9---9---9---9-|---7---7---7---7-|---5---5---5---5-|
B|---5---5---5---6-|---5---5---5---5-|---11--11--11--11|---11--11--11--11|---7---7---7---7-|---5---5---5---5-|
G|---6---6---6---6-|---6---6---6---6-|---11--11--11--11|---11--11--11--11|---8---8---8---8-|---6---6---6---6-|
D|---6---6---6---6-|---6---6---6---6-|---11--11--11--11|---11--11--11--11|---9---9---9---9-|---7---7---7---7-|
A|-4---4---4---4---|-4---4---4---4---|-9---9---9---9---|-9---9---9---9---|-9---9---9---9---|-7---7---7---7---|
E|-----------------|-----------------|-----------------|-----------------|-7---7---7---7---|-5---5---5---5---|

e|---4---4---4---4-|---4---4---4---4-|---9---9---9---9-|---9---9---9---9-|---7---7---7---7-|---5---5---5---5-|
B|---5---5---5---6-|---5---5---5---5-|---11--11--11--11|---11--11--11--11|---7---7---7---7-|---5---5---5---5-|
G|---6---6---6---6-|---6---6---6---6-|---11--11--11--11|---11--11--11--11|---8---8---8---8-|---6---6---6---6-|
D|---6---6---6---6-|---6---6---6---6-|---11--11--11--11|---11--11--11--11|---9---9---9---9-|---7---7---7---7-|
A|-4---4---4---4---|-4---4---4---4---|-9---9---9---9---|-9---9---9---9---|-9---9---9---9---|-7---7---7---7---|
E|-----------------|-----------------|-----------------|-----------------|-7---7---7---7---|-5---5---5---5---|

e|---4---4---4---4-|---4---4---4---4-|
B|---5---5---5---6-|---5---5---5---5-|
G|---6---6---6---6-|---6---6---6---6-|
D|---6---6---6---6-|---6---6---6---6-|
A|-4---4---4---4---|-4---4---4---4---|
E|-----------------|-----------------|

[Outro]
(Not sure whether both guitars are playing here in and out of unison or just wheteher it's
just some production trickery with panning, but either way this is close enough:)
e|-----------------|-----------------|-----------------|-----------------|
B|-----------------|-----------------|-----5-------5---|-----5-------5---|
G|-----8-------8---|-----6-------6---|-------6-------6-|-------6-------6-|
D|-------9-------8-|-------7-------7-|---6-------6-----|---6-------6-----|
A|---9-------------|---7-------------|-4-------4-------|-4-------4-------|
E|-7---------7-----|-5---------5-----|-----------------|-----------------|

e|-----------------|-----------------|-----4-----------|
B|-----------------|---------5-------|----5------------|
G|-----8-------8---|-----6-----6-----|---6-------------|
D|-------9-------8-|-------7-----7---|--6--------------|
A|---9-------------|---7-----------7-|-4---------------|
E|-7---------7-----|-5---------------|-----------------|

***********************************

| ()   Ghost note

***********************************

            
            
Suggest correction
Creating personal tab
Creating personal tab
You can edit any tab online and save it as your Personal.

You can edit, replace or remove any tab part or add personal notes – all changes will be seen only by you.

Personal tabs can be accessed anytime from any device, even offline.
Learn more »
Give kudos to tab author, rate the tab!
1 2 3 4 5
comments
print report bad tab
guest
You may want to rate the tab now too:
select rating
Wanna post a correction for this tab? Suggest correction