Oops, an error
Loading. Please wait.

Sag Harbor Bridge tab

version 1
version 1

Whole song

Interactive

by Women
1,209 views 6 this week
no commentswrite comment
1 2 3 4 5
1 last vote to show rating
add to favorites
×
Save as Personal and add changes to this tab that will be seen only by you. Learn more ›
×
You can save this tab as Personal to edit and correct it or add notes. All changes will be seen only by you. Learn more »
launch autoscroll
font size
0
reset
how to read this tab
guitar tuner
edit
Autoscroll
slow
fast
+/-
esc
set tempo
stop
Sag Harbor Bridge
by Women from their self titled debut.

Tab by ZorakIsStained
soniclife19@gmail.com

In 1995 Ray Johnson leapt to his death from a bridge in Sag Harbor, Long Island. This is 
widely considered to have been his final "nothing."

This tab is more or less the same as the Guitar Pro tab already on here 
(which I also wrote) with some minor updates. This song can be a challenge
and makes for a pretty great technical excessive if nothing 
else, though it was the song that sold me on Women.

Time sig is 7/8 the whole way through, There's a lot going on between the two guitars and I'm 
almost certainly missing some notes. Guitar 1 is a bit buried after the opening bars and I'm
not certain if it's playing the same part as Guitar 2 or not. I highly recommend listening a
lot to the recording and watching some live videos. Typically Women would play this song
immediately after Upstairs, so look for performances of that song.

Note that Guitar 2 is just the same 4 forms that move up the neck chromatically. 

*Beginning/End

Guitar 1
       7/8
e|--------------|    |--------------|    |--------------|    |-------------|
B|--------------|    |--------------|    |--------------|    |-------------|
G|8-------8-----| X4 |11------11----| X4 |2-------2-----| X4 |5------5-----| X4
D|----11----11--|    |----6-----6---|    |----0-----0---|    |---3-----3---|
A|--------------|    |--------------|    |--------------|    |-------------|
E|--------------|    |--------------|    |--------------|    |-------------|

Guitar 2
       7/8
e|--------------|--------------|    |--------------|--------------|
B|--------------|--------------|    |--------------|--------------|
G|--------------|--------------| X2 |--------------|--------------| X2
D|--------------|--------------|    |--6---6---6---|--6---6---6---|
A|--9---9---9---|--9---9---9---|    |9---7---9---7-|9---7---9---7-|
E|7---12--7---12|7---12--7---12|    |--------------|--------------|


e|--------------|--------------|    |--------------|    |--------------||
B|--------------|--------------|    |--------------|    |--------------||
G|--------------|--------------| X2 |--------------| X3 |--------------||
D|--------------|--------------|    |--------------|    |--------------||
A|--4---4---4---|--4---4---4---|    |--6---6----6--|    |----6---6-----||
E|7---5---7---5-|7---5---7---5-|    |8---10---8--10|    |8---------8-8-||

*Middle

Guitar 1/2
       7/8
e|--------------|--------------|    |--------------|--------------|
B|--------------|--------------|    |--------------|--------------|
G|--------------|--------------| X2 |--------------|--------------| X2
D|--------------|--------------|    |--6---6---6---|--6---6---6---|
A|--9---9---9---|--9---9---9---|    |9---7---9---7-|9---7---9---7-|
E|7---12--7---12|7---12--7---12|    |--------------|--------------|


e|--------------|--------------|    |--------------|--------------|
B|--------------|--------------|    |--------------|--------------|
G|--------------|--------------| X2 |--------------|--------------| X2
D|--------------|--------------|    |--------------|--------------|
A|--4---4---4---|--4---4---4---|    |--8---8---8---|--8---8---8---|
E|7---5---7---5-|7---5---7---5-|    |8---12--8---12|12--8---12--8-|


e|--------------|--------------|    |--------------|--------------|
B|--------------|--------------|    |--------------|--------------|
G|--------------|--------------| X2 |--------------|--------------| X2
D|--------------|--------------|    |--7---7---7---|--7---7---7---|
A|--10--10--10--|--10--10--10--|    |10--8---10--8-|10--8---10--8-|
E|8---13--8---13|8---13--8---13|    |--------------|--------------|


e|--------------|--------------|    |--------------|--------------|
B|--------------|--------------|    |--------------|--------------|
G|--------------|--------------| X2 |--------------|--------------| X2
D|--------------|--------------|    |--------------|--------------|
A|--5---5---5---|--5---5---5---|    |--9---9---9---|--9---9---9---|
E|8---6---8---6-|8---6---8---6-|    |9---13--9---13|9---13--9---13|


e|--------------|--------------|    |--------------|--------------|
B|--------------|--------------|    |--------------|--------------|
G|--------------|--------------| X2 |--------------|--------------| X2
D|--------------|--------------|    |--8---8---8---|--8---8---8---|
A|--11--11--11--|--11--11--11--|    |11--9---11--9-|11--9---11--9-|
E|9---14--9---14|9---14--9---14|    |--------------|--------------|


e|--------------|--------------|    |--------------|--------------||
B|--------------|--------------|    |--------------|--------------||
G|--------------|--------------| X2 |--------------|--------------|| X2
D|--------------|--------------|    |--------------|--------------||
A|--6---6---6---|--6---6---6---|    |--10--10--10--|--10--10--10--||
E|9---7---9---7-|9---7---9---7-|    |10--14--10--14|10--14--10--14||


So that's my best guess, play around with it, this tab is only meant to be a rough guide.

            
            
Suggest correction
Creating personal tab
Creating personal tab
You can edit any tab online and save it as your Personal.

You can edit, replace or remove any tab part or add personal notes – all changes will be seen only by you.

Personal tabs can be accessed anytime from any device, even offline.
Learn more »
Give kudos to tab author, rate the tab!
1 2 3 4 5
comments
print report bad tab
guest
You may want to rate the tab now too:
select rating
Wanna post a correction for this tab? Suggest correction