Oops, an error
Loading. Please wait.

Shaking Hand tab

version 2
version 2

Whole song

by Women
598 views 6 this week
no commentswrite comment
1 2 3 4 5
x 3
add to favorites
×
Save as Personal and add changes to this tab that will be seen only by you. Learn more ›
×
You can save this tab as Personal to edit and correct it or add notes. All changes will be seen only by you. Learn more »
launch autoscroll
font size
0
reset
how to read this tab
guitar tuner
edit
Autoscroll
slow
fast
+/-
esc
set tempo
stop
Author
Difficulty
-------------------------------------------------------------------------------
                             Shaking Hand - Women
-------------------------------------------------------------------------------
Tabbed by: me, with help from the original tab by knilstad.

Tuning: Both guitars are in Standard.

Guitar 1(Pat): [0:00-0:22]
Believe it or not, this is how he plays it. It's probably easier to play it like in knilstad's tab though.
https://www.youtube.com/watch?v=ZWIS19HVoyA - Check 1:05.

e|-------10----------10-----------------------------|---------------------------------------|
B|-------13----------13-----------------------------|----7-----------7-----------7----------|
G|-------12----------12------7-------------7--------|----11----------11----------11---------|
D|-------------------------10-10--7--9--10---10--9--|----7-----------7-----------7----------|
A|--------------------------------------------------|-10----------10----------10------------|
E|--------------------------------------------------|---------------------------------------|

e|-------10----------10-----------------------------|---------------------------------------|
B|-------13----------13-----------------------------|----7-----------7-----0-----0-----0----|
G|-------12----------12------7-------------7-----0--|----11----------11---------------------|
D|-------------------------10-10--7--9--10---10-----|----7-----------7----------------------|
A|--------------------------------------------------|-10----------10------------------------|
E|-0--0---------------------------------------------|---------------------------------------|

e|-------10----------10-----------------------------|---------------------------------------|
B|-------13----------13-----------------------------|----7-----------7-----------7----------|
G|-------12----------12------7-------------7-----0--|----11----------11----------11---------|
D|-------------------------10-10--7--9--10---10-----|----7-----------7-----------7----------|
A|--------------------------------------------------|-10----------10----------10------------|
E|-0--0---------------------------------------------|---------------------------------------|

e|-------10----------10-----------------------------|---------------------------------------|
B|-------13----------13-----------------------------|----------------------0-----0-----0----|
G|-------12----------12------7-------------7--------|--11---------11------------------------|
D|-------------------------10-10--7--9--10---10-----|------7----------7---------------------|
A|----------------------------------------------10--|----------10---------------------------|
E|-0--0---------------------------------------------|---------------------------------------|

e|-------10----------10-----------------------------|
B|-------13----------13-----------------------------|
G|-------12----------12------7-------------7--------|
D|-------------------------10-10--7--9--10---10-9---|
A|--------------------------------------------------|
E|-0--0---------------------------------------------|

Guitar 2(Chris): [0:00-0:22]
This comes in on the third measure.
e|-------------------------------------------------|----------------------------------------|
B|-------------------------------------------------|-------10----------10----------10-------|
G|----------12----------12----------12-------12----|-11----------11----------11----------11-|
D|----9-----------9-----------9-----------10-------|----9-----------9-----------9-----------| Repeat x2
A|-------9-----------9-----------9-----12-------10-|----------10----------10----------10----|
E|-12----------12----------10----------------------|----------------------------------------|

e|-------------------------------------------------|
B|-------------------------------------------------|
G|----------12----------12----------12-------12----|
D|----9-----------9-----------9-----------10-------|
A|-------9-----------9-----------9-----12-------10-|
E|-12----------12----------10----------------------|

Both guitars: [0:22-0:33]
e|--------------------------------|-10----------------------------|
B|-9----------------------10------|-10--------------10------------|
G|-9----------------------11------|-11--------------11------11----|
D|-9----------------------11------|-12--------------11------12----|
A|-7----------------------9-------|-12--------------9-------12----|
E|--------------------------------|-10----------------------10----|

e|--------------------------------|-10--------------------------------|
B|-12--9------------------10------|-10--------------10-------------12-|
G|-13--9------------------11------|-11--------------11------11-----13-|
D|-13--9------------------11------|-12--------------11------12-----13-|
A|-11--7------------------9-------|-12--------------9-------12-----11-|
E|--------------------------------|-10----------------------10--------|


Guitar 1: [0:33-0:39]
e|----------0--0-------0-0----0-------0--------|-0----0-0-------0----0----0--------|
B|----------4--4-------4-4----4-------4--------|-4----4-4-------4----4----4--------|
G|----------6--6-------6-6----6-------6--------|-6----6-6-------6----6----6--------|
D|----------7--7-------7-7----7-------7--------|-7----7-7-------7----7----7--------|
A|----------0--0-------0-0----0-------0--------|-0----0-0-------0----0----0--------|
E|---------------------------------------------|-----------------------------------|

Guitar 2: [0:33-0:39]
e|------------------|-----------------|
B|------------------|-----------------|
G|----6-6-6-6-6-6-6-|-6-6-6-6-6-6-6-6-|
D|----7-7-7-7-7-7-7-|-7-7-7-7-7-7-7-7-|
A|----0-0-0-0-0-0-0-|-0-0-0-0-0-0-0-0-|
E|------------------|-----------------|


Guitar 1: [0:39-0:58]
e|-------------------------------------------------|-------------------------------------------------|
B|-------------------------------------------------|-------------------------------------------------|
G|-------------------------------------------------|-------------------------------------------------|
D|-------------------------------------------------|-------------------------------------------------|
A|-11-11-11-11-11-11-11-11-11-11-11-11-11-11-11-11-|-11-11-11-11-11-11-11-11-11-11-11-11-11-11-11-11-|
E|-------------------------------------------------|-------------------------------------------------|

e|-------------------------------------------------|-------------------------------------------------|
B|-------------------------------------------------|-------------------------------------------------|
G|-------------------------------------------------|-------------------------------------------------|
D|-------------------------------------------------|-------------------------------------------------|
A|-11-11-11-11-11-11-11-12-9--9--9--9--9--9--9--9--|-9--9--9--9--9--9--9--9--9--9--9--9--9--9--9--9--|
E|-------------------------------------------------|-------------------------------------------------|

e|-------------------------------------------------|-------------------------------------------------|
B|-------------------------------------------------|-------------------------------------------------|
G|-------------------------------------------------|-------------------------------------------------|
D|-------------------------------------------------|-------------------------------------------------|
A|-9--9--9--9--12-12-12-12-12-12-12-12-12-12-12-12-|-12-12-12-12-12-12-12-12-12-12-12-12-12-12-12-12-|
E|-------------------------------------------------|-------------------------------------------------|

e|-------------------------------------------------|
B|-------------------------------------------------|
G|-------------------------------------------------|
D|-------------------------------------------------|
A|-12-12-12-12-12-12-12-12-12-12-12-12-12-12-12-12-|
E|-------------------------------------------------|

Guitar 2: [0:39-0:58]
e|-------------------------------------------------|
B|-------------------------------------------------|
G|-------------------------------------------------|
D|-------------------------------------------------| x7
A|-11-11-11-11-11-11-11-11-11-11-11-11-11-11-11-11-|
E|-------------------------------------------------|


Both guitars: [0:58-1:08]
e|-------------------------------------------------|----------------------------------------|
B|-------------------------------------------------|-------10----------10----------10-------|
G|----------12----------12----------12-------12----|-11----------11----------11----------11-|
D|----9-----------9-----------9-----------10-------|----9-----------9-----------9-----------| x2
A|-------9-----------9-----------9-----12-------10-|----------10----------10----------10----|
E|-12----------12----------10----------------------|----------------------------------------|

Guitar 1: [1:08-1:18]
e|-------10----------10-----------------------------|---------------------------------------|
B|-------13----------13-----------------------------|----7-----------7-----------7----------|
G|-------12----------12------7-------------7--------|----11----------11----------11---------|
D|-------------------------10-10--7--9--10---10--9--|----7-----------7-----------7----------|
A|--------------------------------------------------|-10----------10----------10------------|
E|-0--0---------------------------------------------|---------------------------------------|

e|-------10----------10-----------------------------|---------------------------------------|
B|-------13----------13-----------------------------|----------------------0-----0-----0----|
G|-------12----------12------7-------------7--------|--11---------11------------------------|
D|-------------------------10-10--7--9--10---10-----|------7----------7---------------------|
A|----------------------------------------------10--|----------10---------------------------|
E|-0--0---------------------------------------------|---------------------------------------|

Guitar 2: [1:08-1:18]
e|-------------------------------------------------|----------------------------------------|
B|-------------------------------------------------|-------10----------10----------10-------|
G|----------12----------12----------12-------12----|-11----------11----------11----------11-|
D|----9-----------9-----------9-----------10-------|----9-----------9-----------9-----------| x2
A|-------9-----------9-----------9-----12-------10-|----------10----------10----------10----|
E|-12----------12----------10----------------------|----------------------------------------|

Both guitars: [1:18-1:37]
e|-------------------------------------------------|----------------------------------------|
B|-------------------------------------------------|-------10----------10----------10-------|
G|----------12----------12----------12-------12----|-11----------11----------11----------11-|
D|----9-----------9-----------9-----------10-------|----9-----------9-----------9-----------| x3
A|-------9-----------9-----------9-----12-------10-|----------10----------10----------10----|
E|-12----------12----------10----------------------|----------------------------------------|

Guitar 1:
e|-------------------------------------------------|
B|-------------------------------------------------|
G|----------12----------12----------12-------------|
D|----9-----------9-----------9-----------------9--|
A|-------9-----------9-----------9-----12-12-12----|
E|-12----------12----------10----------------------|

Guitar 2:
e|-------------------------------------------------|
B|-------------------------------------------------|
G|----------12----------12----------12-------------|
D|----9-----------9-----------9--------------------|
A|-------9-----------9-----------9-----------------|
E|-12----------12----------10----------5--5--5--7--|


Guitar 1: [1:37-1:54]
e|-0-0-0-0-0-0-0-0-|
B|-4-4-4-4-4-4-4-4-|
G|-6-6-6-6-6-6-6-6-| Repeat.
D|-7-7-7-7-7-7-7-7-|
A|-0-0-0-0-0-0-0-0-|
E|-----------------|

Guitar 2: [1:37-1:54] 
e|--------------------------------------------|
B|--------------------------------------------|
G|---------------------6----4-----------------|
D|-6---4---------6--4---------6--4---4--6-----|
A|---7---7-------------------------7----------|
E|--------------------------------------------|

e|---------------------4-------7--------------|
B|-----------------------------------4---4----|
G|---------------6-------4-------------4---4--|
D|-4---4-6----------7-------6----6------------|
A|---7----------------------------------------|
E|--------------------------------------------|

e|--------------------------------------------|
B|--------------------------------------------|
G|---------------------6----4-----------------|
D|-6---4---------6--4-----7---6--4---4--6-----|
A|---7---7-------------------------7----------|
E|--------------------------------------------|

e|---------------------4-------7--------------|
B|-----------------------------------4---4----|
G|---------------6-------4-------------4---4--|
D|-4---4-6----------7-------6----6------------|
A|---7----------------------------------------|
E|--------------------------------------------|

e|--------------------------------------------|
B|--------------------------------------------|
G|---------------------6----4-----------------|
D|-6---4---------6--4-----7---6--4---4--6-----|
A|---7---7-------------------------7----------|
E|--------------------------------------------|

e|---------------------4-------7--------------|
B|-----------------------------------4---4----|
G|---------------6-------4-------------4---4--|
D|-4---4-6----------7-------6----6------------|
A|---7----------------------------------------|
E|--------------------------------------------|

Guitar 1: [1:54-2:24]
e|-------------------------------------------------|
B|-------------------------14----------14----14----|
G|-------------------------13----------13----13----|
D|-------------------------14----------14----14----|
A|-------------------------11----------11----11----|
E|-------------------------------------------------|

e|-------------------------------------------------|
B|-14----------14----14----------------------------|
G|-13----------13----13----11----------11----11----|
D|-14----------14----14----13----------13----13----|
A|-11----------11----11----14----------14----14----|
E|-------------------------------------------------|

e|-------------------------------------------------|
B|-12----------12----12----12----------12----------|
G|-14----------14----14----14----------14----------|
D|-11----------11----11----11----------11----------|
A|-14----------14----14----14----------14----------|
E|-------------------------------------------------|

e|-------------------------------------------------|
B|-------------------------------------------------|
G|-11----------11----------11----------11----------|
D|-13----------13----------13----------13----------|
A|-14----------14----------14----------14----------|
E|-------------------------------------------------|

e|-------------------------------------------------|
B|-16----------16----------16----------16----------|
G|-14----------14----------14----------14----------|
D|-14----------14----------14----------14----------|
A|-11----------11----------11----------11----------|
E|-------------------------------------------------|

e|-------------------------------------------------|
B|-16----------16----------------------------------|
G|-14----------14----------11----------11----------|
D|-14----------14----------13----------13----------|
A|-11----------11----------14----------14----------|
E|-------------------------------------------------|

e|-------------------------------------------------|
B|-12----------12----------12----12----12----12----|
G|-14----------14----------14----14----14----14----|
D|-11----------11----11----11----11----11----11----|
A|-14----------14----14----14----14----14----14----|
E|-------------------------------------------------|

e|-------------------------------------------------|
B|-------------------------------------------------|
G|-11----11----11----11----11----11----11----11----|
D|-13----13----13----13----13----13----13----13----|
A|-14----14----14----14----14----14----14----14----|
E|-------------------------------------------------|

e|-------------------------------------------------|
B|-14----14----14----14----14----14----14----14----|
G|-13----13----13----13----13----13----13----13----|
D|-14----14----14----14----14----14----14----14----| x2
A|-11----11----11----11----11----11----11----11----|
E|-------------------------------------------------|

e|-------------------------------------------------|
B|-12----12----12----12----12----12----12----12----|
G|-14----14----14----14----14----14----14----14----|
D|-11----11----11----11----11----11----11----11----|
A|-14----14----14----14----14----14----14----14----|
E|-------------------------------------------------|

Guitar 2: [1:54-2:24]
e|-------------------------------------------------|
B|-------------------------------------------------|
G|-13-13-13-13-13-13-13-13-13-13-13-13-13-13-13-13-|
D|-------------------------------------------------|
A|-11-11-11-11-11-11-11-11-11-11-11-11-11-11-11-11-|
E|-------------------------------------------------|

e|-------------------------------------------------|
B|-------------------------------------------------|
G|-------------------------------------------------|
D|-9--9--9--9--9--9--9--9--14-14-14-14-14-14-14-14-|
A|-------------------------------------------------|
E|-7--7--7--7--7--7--7--7--12-12-12-12-12-12-12-12-|

e|-------------------------------------------------|
B|-------------------------------------------------|
G|-------------------------------------------------|
D|-16-16-16-16-16-16-16-16-16-16-16-16-16-16-16-16-| -
A|-16-16-16-16-16-16-16-16-16-16-16-16-16-16-16-16-|  | Palm mute
E|-14-14-14-14-14-14-14-14-14-14-14-14-14-14-14-14-| -

e|-------------------------------------------------|
B|----------------------14-14-14-14-14-14-14-14-14-|
G|-16-16-16-16-16-16-16----------------------------|
D|-------------------------------------------------|
A|-16-16-16-16-16-16-16-14-14-14-14-14-14-14-14-14-|
E|-------------------------------------------------|

e|-------------------------------------------------|
B|-------------------------------------------------|
G|-13-13-13-13-11-11-11-11-13-13-13-13-13-13-13-13-|
D|-------------------------------------------------|
A|-12-12-12-12-12-12-12-12-12-12-12-12-12-12-12-12-|
E|-------------------------------------------------|

e|-------------------------------------------------|
B|-12-12-12-12-12-12-12-12-12-12-12-12-12-12-12-12-|
G|-13-13-13-13-13-13-13-13-13-13-13-13-13-13-13-13-|
D|-------------------------------------------------|
A|-11-11-11-11-11-11-11-11-------------------------|
E|-------------------------11-11-11-11-11-11-11-11-|

e|-------------------------------------------------|
B|-0-----0-----0-----0-----0-----0-----0-----0-----|
G|-4-----4-----4-----4-----4-----4-----4-----4-----|
D|-------------------------------------------------|
A|-------------------------------------------------|
E|-4--4--4--4--4--4--4--4--4--4--4--4--4--4--4--4--|

e|-------------------------------------------------|
B|-------------------------------------------------|
G|-11-11-11-11-11-11-11-13-13-13-13-13-13-13-13-13-|
D|-------------------------------------------------|
A|-------------------------------------------------|
E|-11-11-11-11-11-11-11-11-11-11-11-11-11-11-11-11-|

e|-------------------------------------------------|
B|-------------------------------------------------|
G|-13-13-13-13-13-13-13-13-13-13-13-13-13-13-13-13-|
D|-------------------------------------------------|
A|-11-11-11-11-11-11-11-11-11-11-11-11-11-11-11-11-|
E|-------------------------------------------------|

e|-------------------------------------------------|
B|-------------------------------------------------|
G|-------------------------------------------------|
D|-9--9--9--9--9--9--9--9--14-14-14-14-14-14-14-14-|
A|-------------------------------------------------|
E|-7--7--7--7--7--7--7--7--12-12-12-12-12-12-12-12-|

e|-------------------------------------------------|
B|-------------------------------------------------|
G|-------------------------------------------------|
D|-16-16-16-16-16-16-16-16-16-16-16-16-16-16-16-16-|
A|-16-16-16-16-16-16-16-16-16-16-16-16-16-16-16-16-|
E|-14-14-14-14-14-14-14-14-14-14-14-14-14-14-14-14-|

Both Guitars: [2:24-2:35]
e|--------------------------------|-10-------------------------------|
B|-9----------------------10------|-10--------------10---------------|
G|-9----------------------11------|-11--------------11------11-------|
D|-9----------------------11------|-12--------------11------12-------|
A|-7----------------------9-------|-12--------------9-------12-------|
E|--------------------------------|-10----------------------10-------|

e|--------------------------------|-10-------------------------------|
B|-12--9------------------10------|-10--------------10---------------|
G|-13--9------------------11------|-11--------------11------11-------|
D|-13--9------------------11------|-12--------------11------12-------|
A|-11--7------------------9-------|-12--------------9-------12-------|
E|--------------------------------|-10----------------------10-------|

Guitar 1: [2:35-3:44]
e|---------------------------------|-----4---------------------------|
B|---------------------------------|-5-7-----------------------------|
G|---------6-4---4---6-----6-4-----|---------6-4---4---6-----6-4-----|
D|-------------6---------------6-4-|-------------6---------------6-4-|
A|-0---0-0---------------0---------|-------0-------------0-0---------|
E|---------------------------------|---------------------------------|  \
                                                                          Repeat
e|---------------------------------|-----4---------------------------|  /
B|---------------------------------|-5-7-----------------------------|
G|---------6-4---4---6-----6-4-----|---------6-4---4---6-----6-4-----|
D|-------------6---------------6-4-|-------------6---------------6-4-|
A|---------------------------------|---------------------------------|
E|-0---0-0-------------0-0---------|-------0-------------0-0---------|

Guitar 2: [2:35-3:44]
e|---------------------------------|---------------------------------|
B|---------------------------------|---------------------------------|
G|---------4-1---1---4-----4-1-----|---1-----4-1---1---4-----4-1-----|
D|-------------4---------------4-2-|-4-----------4---------------4-2-|
A|-0---0-0---------------0---------|-------0-------------0-0---------|
E|---------------------------------|---------------------------------|  \
                                                                          Repeat
e|---------------------------------|---------------------------------|  /
B|---------------------------------|---------------------------7-----|
G|-------8-------6-----6--------8--|-------8-------6---------8---8---|
D|-----------6--------------6------|-----------6-------6-------------|
A|---------------------------------|---------------------------------|
E|-0----------------0--------------|-0-0-----------------0-0---------|

Repeat the following measures 4 times.

Guitar 1: [3:44-4:02]
e|-9--9--9----9--9--9---9---------|-9--9--9----9--9--9---9-----|
B|-9--9--9----9--9--9---12--------|-9--9--9----9--9--9---12----|
G|-9--9--9----9--9--9---9---------|-9--9--9----9--9--9---9-----|
D|-11-11-11---11-11-11--11--------|-11-11-11---11-11-11--11----|
A|-0--0--0----0--0--0---0---------|-0--0--0----0--0--0---0-----|
E|--------------------------------|----------------------------|

e|--------------------------------|--------------------------------|---------|
B|-9--9--9----9--9--9----9----9---|-9--9--9----9--9--9----9--------|---------|
G|-9--9--9----9--9--9----11---11--|-9--9--9----9--9--9----11-------|---------|
D|-9--9--9----9--9--9----9----9---|-9--9--9----9--9--9----9----9---|---------|
A|-11-11-11---11-11-11---11---11--|-11-11-11---11-11-11---11---11--|---------|
E|-0--0--0----0--0--0----0----0---|-0--0--0----0--0--0----0----0---|-12-11-9-|

Guitar 2: [3:44-4:02]
e|-9----9----9----9----9----------|-9----9----9----9----9-----|
B|-9----9----9----9----12---------|-9----9----9----9----12----|
G|-9----9----9----9----9----------|-9----9----9----9----9-----|
D|-11---11---11---11---11---------|-11---11---11---11---11----|
A|-0----0----0----0----0----------|-0----0----0----0----0-----|
E|--------------------------------|---------------------------|

e|--------------------------------|-------------------------------|---------|
B|-9----9----9----9----9----------|-9----9----9----9----9---------|---------|
G|-9----9----9----9----11---------|-9----9----9----9----11--------|---------|
D|-9----9----9----9----9----------|-9----9----9----9----9---------|---------|
A|-11---11---11---11---11---------|-11---11---11---11---11--------|---------|
E|-0----0----0----0----0----------|-0----0----0----0----0---------|-12-11-9-|

Both guitars: [4:02-4:33]
e|----------9--------|----------9-----|-------------------|------------------|---------|
B|-------9-----12----|-------9-----12-|----------9--------|----------9-------|---------|
G|----9--------------|----9-----------|-------9-----11----|-------9-----11-9-|---------|
D|-11----------------|-11-------------|----9--------------|----9-------------|---------| x7
A|-0-----------------|-0--------------|-11----------------|-11---------------|---------|
E|-------------------|----------------|-0-----------------|-0----------------|-12-11-9-|

Guitar 1: [4:33-end]
e|----------9--------|----------9-----|-------------------|------------------|
B|-------9-----12----|-------9-----12-|----------9--------|------------------|
G|----9--------------|----9-----------|-------9-----11----|-------9----------|
D|-11----------------|-11-------------|----9--------------|----9-------------|
A|-0-----------------|-0--------------|-11----------------|-11---------------|
E|-------------------|----------------|-0-----------------|-0----------12~---|

Guitar 2: [4:33-end]
e|----------9--------|----------9-----|-------------------|------------------|
B|-------9-----12----|-------9-----12-|----------9--------|------------------|
G|----9--------------|----9-----------|-------9-----11----|-------9--9-------|
D|-11----------------|-11-------------|----9--------------|----9-------------|
A|-0-----------------|-0--------------|-11----------------|-11---------------|
E|-------------------|----------------|-0-----------------|-0----------12~---|

            
            
Suggest correction
Creating personal tab
Creating personal tab
You can edit any tab online and save it as your Personal.

You can edit, replace or remove any tab part or add personal notes – all changes will be seen only by you.

Personal tabs can be accessed anytime from any device, even offline.
Learn more »
Give kudos to tab author, rate the tab!
1 2 3 4 5
comments
print report bad tab
guest
You may want to rate the tab now too:
select rating
Wanna post a correction for this tab? Suggest correction