Oops, an error
Loading. Please wait.

Upstairs tab

by Women
37 views 1 this week
no commentswrite comment
1 2 3 4 5
3 more votes to show rating
add to favorites
×
Save as Personal and add changes to this tab that will be seen only by you. Learn more ›
×
You can save this tab as Personal to edit and correct it or add notes. All changes will be seen only by you. Learn more »
launch autoscroll
font size
0
reset
how to read this tab
guitar tuner
edit
Autoscroll
slow
fast
+/-
esc
set tempo
stop
This song is played with two guitars, but the parts are similar enough (at times simply mirroring each other)
that it can be played on one guitar and sound more or less the same it does on the record.

[Verse]
   1  +  2  +  3  +  4  +    1  +  2  +  3  +  4  +  
e|-------------------------|-------------------------|
B|-------------------------|-------------------------|
G|-------------------14-14-|-16-16-14-14-16-16-16-16-|
D|-17-17-17-17-17----------|-------------------------| (x4)
A|-15-15-15-15-15----17-17-|-17-17-17-17-17-17-17-17-|
E|-17-17-17-17-17----15-15-|-15-15-15-15-15-15-15-15-|

[Chorus]
(You can choose whether or not to let the open G string ring when playing these power chords)
(Palm mute after each set of chords, as you switch)
   1  +  2  +  3  +  4  +    1  +  2  +  3  +  4  +    1  +  2  +  3  +  4  +    1  +  2  +  3  +  4  +
e|-------------------------|-------------------------|-------------------------|-------------------------|
B|-5--5--5--5--5-----8--8--|-8--8--8--8--8--8--8-----|-12-12-12-12-12----10-10-|-10-10-10-10-10-10-10----|
G|-------------------------|-------------------------|-------------------------|-------------------------|
D|-------------------------|-------------------------|-------------------------|-------------------------|
A|-7--7--7--7--7-----10-10-|-10-10-10-10-10-10-10----|-14-14-14-14-14----12-12-|-12-12-12-12-12-12-12----|
E|-------------------------|-------------------------|-------------------------|-------------------------|

e|-------------------------|-------------------------|-------------------------|-------------------------|
B|-5--5--5--5--5-----7--7--|-1--1--1--1--1--1--1-----|-8--8--8--8--8-----12-12-|-12-12-12-12-12-12-12----|
G|-------------------------|-------------------------|-------------------------|-------------------------|
D|-------------------------|-------------------------|-------------------------|-------------------------|
A|-7--7--7--7--7-----9--9--|-3--3--3--3--3--3--3-----|-10-10-10-10-10----14-14-|-14-14-14-14-14-14-14----|
E|-------------------------|-------------------------|-------------------------|-------------------------|

e|-------------------------|-------------------------|
B|-10-10-10-10-10----8-----|-------------------------|
G|-------------------------|-------------------------|
D|-------------------------|-------------------------|
A|-12-12-12-12-12----10----|-------------------------|
E|-------------------------|-------------------------|

[Verse]
   1  +  2  +  3  +  4  +    1  +  2  +  3  +  4  +  
e|-------------------------|-------------------------|
B|-------------------------|-------------------------|
G|-------------------14-14-|-16-16-14-14-16-16-16-16-|
D|-17-17-17-17-17----------|-------------------------| (x8)
A|-15-15-15-15-15----17-17-|-17-17-17-17-17-17-17-17-|
E|-17-17-17-17-17----15-15-|-15-15-15-15-15-15-15-15-|

[Chorus]
   1  +  2  +  3  +  4  +    1  +  2  +  3  +  4  +    1  +  2  +  3  +  4  +    1  +  2  +  3  +  4  +
e|-------------------------|-------------------------|-------------------------|-------------------------|
B|-5--5--5--5--5-----8--8--|-8--8--8--8--8--8--8-----|-12-12-12-12-12----10-10-|-10-10-10-10-10-10-10----|
G|-------------------------|-------------------------|-------------------------|-------------------------|
D|-------------------------|-------------------------|-------------------------|-------------------------|
A|-7--7--7--7--7-----10-10-|-10-10-10-10-10-10-10----|-14-14-14-14-14----12-12-|-12-12-12-12-12-12-12----|
E|-------------------------|-------------------------|-------------------------|-------------------------|

e|-------------------------|-------------------------|-------------------------|-------------------------|
B|-5--5--5--5--5-----7--7--|-1--1--1--1--1--1--1-----|-8--8--8--8--8-----12-12-|-12-12-12-12-12-12-12----|
G|-------------------------|-------------------------|-------------------------|-------------------------|
D|-------------------------|-------------------------|-------------------------|-------------------------|
A|-7--7--7--7--7-----9--9--|-3--3--3--3--3--3--3-----|-10-10-10-10-10----14-14-|-14-14-14-14-14-14-14----|
E|-------------------------|-------------------------|-------------------------|-------------------------|

e|-------------------------|-------------------------|
B|-10----------------------|-------------------------|
G|-------------------------|-------------------------|
D|-------------------------|-------------------------|
A|-12----------------------|-------------------------|
E|-------------------------|-------------------------|

[Outro]   
   1  +  2  +  3  +  4  +    1  +  2  +  3  +  4  +    1  +  2  +  3  +  4  +    1  +  2  +  3  +  4  +
e|-------------------------|-------------------------|-------------------------|-------------------------|
B|-11----------------------|-11----11----------------|-11----------------------|-------------------------|
G|-------------------------|-12----12----------------|-9-----------------------|-------------------------|
D|-11----------------------|-11----11----------------|-11----------------------|-------------------------|
A|-9-----------------------|-10----------------------|-------------------------|-------------------------|
E|-------------------------|-------10----------------|-0-----------------------|-------------------------|

e|-------------------------|-------------------------|-------------------------|-------------------------|
B|-11----------------------|-11----11----------------|-11----------------------|-------------------------|
G|-------------------------|-12----12----------------|-9-----------------------|-------------------------|
D|-11----------------------|-11----11----------------|-11----------------------|-------------------------|
A|-9-----------------------|-10----------------------|-------------------------|-------------------------|
E|-------------------------|-------10----------------|-0-----------------------|-------------------------|

e|-------------------------|-------------------------|-------------------------|-------------------------|
B|-11-11-------------------|-11----11----------------|-11----------------------|-------------------------|
G|-------------------------|-12----12----------------|-9-----------------------|-------------------------|
D|-11-11-------------------|-11----11----------------|-11----------------------|-------------------------|
A|-9--9--------------------|-10----------------------|-------------------------|-------------------------|
E|-------------------------|-------10----------------|-0-----------------------|-------------------------|

e|-------------------------|-------------------------|-------------------------|-------------------------|
B|-11----------------------|-11----11----------------|-11----------------------|-------------------------|
G|-------------------------|-12----12----------------|-9-----------------------|-------------------------|
D|-11----------------------|-11----11----------------|-11----------------------|-------------------------|
A|-9-----------------------|-10----------------------|-------------------------|-------------------------|
E|-------------------------|-------10----------------|-0-----------------------|-------------------------|

e|-------------------------|-------------------------|-------------------------|-------------------------|
B|-12-11-------------------|-11----11----------------|-11----------------------|-------------------------|
G|-------------------------|-12----12----------------|-9-----------------------|-------------------------|
D|-11-11-------------------|-11----11----------------|-11----------------------|-------------------------|
A|-9--9--------------------|-10----------------------|-------------------------|-------------------------|
E|-------------------------|-------10----------------|-0-----------------------|-------------------------|

e|-------------------------|-------------------------|-------------------------|----------------------12-|
B|-12-11-------------------|-11----11----------------|-11----------------------|-------------------------|
G|-------------------------|-12----12----------------|-9-----------------------|-------------------11----|
D|-11-11-------------------|-11----11----------------|-11----------------------|----------------11-------|
A|-9--9--------------------|-10----------------------|-------------------------|----------12-------------|
E|-------------------------|-------10----------------|-0-----------------------|-------------14----------|

e|-------------------------|-------------------------|-------------------------|-------------------------|
B|-11----------------------|-11----11----------------|-11----------------------|-------------------------|
G|-------------------------|-12----12----------------|-9-----------------------|-------------------------|
D|-11----------------------|-11----11----------------|-11----------------------|-------------------------|
A|-9-----------------------|-10----------------------|-------------------------|-------------------------|
E|-------------------------|-------10----------------|-0-----------------------|-------------------------|

e|-------------------------|-------------------------|-------------------------|----------------------12-|
B|-12-11-------------------|-11----11----------------|-11----------------------|-------------------------|
G|-------------------------|-12----12----------------|-9-----------------------|-------------------11----|
D|-11-11-------------------|-11----11----------------|-11----------------------|----------------11-------|
A|-9--9--------------------|-10----------------------|-------------------------|----------12-------------|
E|-------------------------|-------10----------------|-0-----------------------|-------------14----------|

e|-------------------------|-------------------------|-------------------------|-------------------------|
B|-11----------------------|-11----11----------------|-11----------------------|-------------------------|
G|-------------------------|-12----12----------------|-9-----------------------|-------------------------|
D|-11----------------------|-11----11----------------|-11----------------------|-------------------------|
A|-9-----------------------|-10----------------------|-------------------------|-------------------------|
E|-------------------------|-------10----------------|-0-----------------------|-------------------------|

e|-------------------------|-------------------------|-------------------------|----------------------12-|
B|-12-11-------------------|-11----11----------------|-11----------------------|-------------------------|
G|-------------------------|-12----12----------------|-9-----------------------|-------------------11----|
D|-11-11-------------------|-11----11----------------|-11----------------------|----------------11-------|
A|-9--9--------------------|-10----------------------|-------------------------|----------12-------------|
E|-------------------------|-------10----------------|-0-----------------------|-------------14----------|

e|-------------------------|-------------------------|-------------------------|-------------------------|
B|-11----------------------|-11----11----------------|-11----------------------|-------------------------|
G|-------------------------|-12----12----------------|-9-----------------------|-------------------------|
D|-11----------------------|-11----11----------------|-11----------------------|-------------------------|
A|-9-----------------------|-10----------------------|-------------------------|-------------------------|
E|-------------------------|-------10----------------|-0-----------------------|-------------------------|

e|-------------------------|-------------------------|-------------------------|-------------------------|
B|-12-11-------------------|-11----11----------------|-11----------------------|-------------------------|
G|-------------------------|-12----12----------------|-9-----------------------|-------------------------|
D|-11-11-------------------|-11----11----------------|-11----------------------|-------------------------|
A|-9--9--------------------|-10----------------------|-------------------------|-------------------------|
E|-------------------------|-------10----------------|-0-----------------------|-------------------------|

e|-------------------------|
B|-11----------------------|
G|-------------------------|
D|-11----------------------|
A|-9-----------------------|
E|-------------------------|

            
            
Suggest correction
Creating personal tab
Creating personal tab
You can edit any tab online and save it as your Personal.

You can edit, replace or remove any tab part or add personal notes – all changes will be seen only by you.

Personal tabs can be accessed anytime from any device, even offline.
Learn more »
Give kudos to tab author, rate the tab!
1 2 3 4 5
comments
print report bad tab
guest
You may want to rate the tab now too:
select rating
Wanna post a correction for this tab? Suggest correction