Oops, an error
Loading. Please wait.

Brooklyn Chords

version 1
version 1

Whole song

Interactive

22,816 views 69 this week
1 commentread comment
1 2 3 4 5
excellent!
x 10
add to favorites
launch autoscroll
font size
0
reset
transpose
0
reset
simplify chords
display chords
guitar tuner
Autoscroll
slow
fast
+/-
esc
set tempo
stop
Help us to improve Ultimate-Guitar.com Take our survey!
×
Author
Difficulty
intermediate
Woodkid - Brooklyn
From Iron EP

Here are the chord shapes used throughout the song.

 Bmaj7       Emaj7        D#7      C#m         F#m          B7        G#m7b5        F
E------|    E------|    E-----|   E-----|    E------|    E------|    E------|    E------|
B--7---|    B--9---|    B--8--|   B--5--|    B--10--|    B--10--|    B--12--|    B--10--|
G--8---|    G--8---|    G--6--|   G--6--|    G--11--|    G--8---|    B--11--|    G--10--|
D--8---|    D--9---|    D--8--|   D--6--|    D--11--|    D--7---|    D--12--|    D--10--|
A------|    A--7---|    A--6--|   A--4--|    A--9---|    A--9---|    A--11--|    A--8---|
E--7---|    E------|    E-----|   E-----|    E------|    E--7---|    E------|    E------|


 Cmaj7         Em         F#6
E------|    E------|    E------|
B--8---|    B--8---|    B--7---|
G--9---|    G--9---|    G--8---|
D--9---|    D--9---|    D--8---|
A------|    A--7---|    A--9---|
E--8---|    E------|    E------|



Intro

   Bmaj7
E-----------------------------------------------|
B--7--------------7-------7-------------7-------|
G-----------8---------------------8-------------|
D--------8-----------8---------8-----------8----|
A-----------------------------------------------|
E--7-----------7----------7----------7----------|

   Emaj7
E-----------------------------------------------|
B--9--------------9-------9-------------9-------|
G-----------8---------------------8-------------|
D--------9-----------9---------9-----------9----|
A--7-----------7----------7----------7----------|
E-----------------------------------------------|


Verse

   Bmaj7
E-----------------------------------------------|
B--7--------------7-------7-------------7-------|
G-----------8---------------------8-------------|
D--------8-----------8---------8-----------8----|
A-----------------------------------------------|
E--7-----------7----------7----------7----------|

   Emaj7
E-----------------------------------------------|
B--9--------------9-------9-------------9-------|
G-----------8---------------------8-------------|
D--------9-----------9---------9-----------9----|
A--7-----------7----------7----------7----------|
E-----------------------------------------------|      x4


   D#7
E-----------------------------------------------|
B--8--------------8-------8-------------8-------|
G-----------6---------------------6-------------|
D--------8-----------8---------8-----------8----|
A--6-----------6----------6----------6----------|
E-----------------------------------------------|

   C#m
E-----------------------------------------------|
B--5--------------5-------5-------------5-------|
G-----------6---------------------6-------------|
D--------6-----------6---------6-----------6----|
A--4-----------4----------4----------4----------|
E-----------------------------------------------|      x2


Pre-chorus

   F#m
E-----------------------------------------------|
B--10-------------10------10------------10------|
G-----------11--------------------11------------|
D--------11----------11--------11----------11---|
A--9-----------9----------9----------9----------|
E-----------------------------------------------|

   C#m
E-----------------------------------------------|
B--5--------------5-------5-------------5-------|
G-----------6---------------------6-------------|
D--------6-----------6---------6-----------6----|
A--4-----------4----------4----------4----------|
E-----------------------------------------------|      x2


Chorus

   F#m                    B7
E-----------------------------------------------|
B--10-------------10------10------------10------|
G-----------11--------------------8-------------|
D--------11----------11--------7-----------7----|
A--9-----------9--------------------------------|
E-------------------------7----------7----------|

   Emaj7
E-----------------------------------------------|
B--9--------------9-------9-------------9-------|
G-----------8---------------------8-------------|
D--------9-----------9---------9-----------9----|
A--7-----------7----------7----------7----------|
E-----------------------------------------------|

   G#m7b5
E-----------------------------------------------|
B--12-------------12------12------------12------|
G-----------11--------------------11------------|
D--------12----------12--------12----------12---|
A--11----------11---------11---------11---------|
E-----------------------------------------------|

   C#7
E-----------------------------------------------|
B--12-------------12------12------------12------|
G-----------10--------------------10------------|
D--------9-----------9---------9-----------9----|
A-----------------------------------------------|
E--9-----------9----------9----------9----------|


Post-Chorus

   F#m
E-----------------------------------------------|
B--10-------------10------10------------10------|
G-----------11--------------------11------------|
D--------11----------11--------11----------11---|
A--9-----------9----------9----------9----------|
E-----------------------------------------------|

   F
E-----------------------------------------------|
B--10-------------10------10------------10------|
G-----------10--------------------10------------|
D--------10----------10--------10----------10---|
A--8-----------8----------8----------8----------|
E-----------------------------------------------|

   Cmaj7
E-----------------------------------------------|
B--8--------------8-------8-------------8-------|
G-----------9---------------------9-------------|
D--------9-----------9---------9-----------9----|
A-----------------------------------------------|
E--8-----------8----------8----------8----------|

   Em                     F#6
E-----------------------------------------------|
B--8--------------8-------7-------------7-------|
G-----------9---------------------8-------------|
D--------9-----------9---------8-----------8----|
A--7-----------7----------9----------9----------|
E-----------------------------------------------|


Verse

Pre-chorus

Chorus (This second chorus has a very tiny picking variation on the final chord, which I
may as well point out):

   C#7
E-------------------------9-----------------------|
B--12-------------12--------------------12--------|
G-----------10--------------------10--------------|
D--------9-----------9---------9-----------9------|
A-------------------------------------------------|
E--9-----------9----------9----------9------------|


Post-chorus (variation)

   F#m
E-----------------------------------------------|
B--10-------------10------10------------10------|
G-----------11--------------------11------------|
D--------11----------11--------11----------11---|
A--9-----------9----------9----------9----------|
E-----------------------------------------------|

   F
E-----------------------------------------------|
B--10-------------10------10------------10------|
G-----------10--------------------10------------|
D--------10----------10--------10----------10---|
A--8-----------8----------8----------8----------|
E-----------------------------------------------|

   Cmaj7
E-----------------------------------------------|
B--8--------------8-------8-------------8-------|
G-----------9---------------------9-------------|
D--------9-----------9---------9-----------9----|
A-----------------------------------------------|
E--8-----------8----------8----------8----------|


   Em
E-----------------------------------------------|
B--8--------------8-------8-------------8-------|
G-----------9---------------------9-------------|
D--------9-----------9---------9-----------9----|
A--7-----------7----------7----------7----------|
E-----------------------------------------------|      x2


Pre-Chorus

Chorus

Outro

   C#7
E-----------------------------------------------|
B--12-------------12------12------------12------|
G-----------10--------------------10------------|
D--------9-----------9---------9-----------9----|
A-----------------------------------------------|
E--9-----------9----------9----------9----------|

E-----------------------------------------------|
B--12-------------------------------------------|
G-----------------------------------------------|
D-----------------------------------------------|
A-----------------------------------------------|
E--9--------------------------------------------|



There it is, a beautiful little song. Now try singing it without doing an impression of his
French accent. Good luck!

Dave

P.S Feel free to email if you have any questions or anything: Big_dave699@hotmail.com
Suggest correction
What's this?
You can suggest a correction to this tab. Community and Mods will review your correction and vote to approve or reject it.
comments
print report bad tab
1 comment total.
0 reply
phamkhoiedison 169 wrote on March 15 2015, 08:11 am

Awesome tab! Don't have to move your hand to much

guest
You may want to rate the tab now too:
select rating
Please do not post tabs as comments. Select "correction" instead!