Oops, an error
Loading. Please wait.

Brooklyn Tab

version 1
version 1

Whole song

Interactive

35,648 views 36 this week
3 commentsread comments
1 2 3 4 5
x 13
add to favorites
launch autoscroll
font size
0
reset
how to read this tab
guitar tuner
Autoscroll
slow
fast
+/-
esc
set tempo
stop
Help us to improve Ultimate-Guitar.com Take our survey!
×
Difficulty
intermediate
Standard Tuning
[Hey Lauren, look what I did!]
This is a really sweet song, so play it fairly slow, and let the notes ring out nicely.
Have fun playing this, it's fairly simple, but sounds fantastic.


[Intro]

e|--------------------------|4--------4----4--------4----|
B|7-------7----7-------7----|-----4-------------4--------|
G|-----8------------8-------|---4-------4-----4-------4--|
D|---8------8-----8------8--|2------2------2------2------|
A|--------------------------|----------------------------|
E|7------7-----7-----7------|----------------------------|

e|----------------------------|4--------4----4--------4----|
B|7--------7----7--------7----|-----4-------------4--------|
G|-----8-------------8--------|---4-------4-----4-------4--|
D|---8-------8-----8-------8--|2------2------2------2------|
A|----------------------------|----------------------------|
E|7------7------7------7------|----------------------------|

(Alternatively, you can play it as follows, it sounds the same either way. People with 
smaller fingers will probably prefer the first, people with bigger fingers the second.)
(tl;dr: Below is a different way of playing the intro.)

e|2--------2----2--------2----|4--------4----4--------4----|
B|-----4-------------4--------|-----4-------------4--------|
G|---3-------3-----3-------3--|---4-------4-----4-------4--|
D|----------------------------|2------2------2------2------|
A|2------2------2------2------|----------------------------|
E|----------------------------|----------------------------|

e|2--------2----2--------2----|4--------4----4--------4----|
B|-----4-------------4--------|-----4-------------4--------|
G|---3-------3-----3-------3--|---4-------4-----4-------4--|
D|----------------------------|2------2------2------2------|
A|2------2------2------2------|----------------------------|
E|----------------------------|----------------------------|

[Verse]

e|----------------------------|4--------4----4--------4----|
B|7--------7----7--------7----|-----4-------------4--------|
G|-----8-------------8--------|---4-------4-----4-------4--|
D|---8-------8-----8-------8--|2------2------2------2------|
A|----------------------------|----------------------------|
E|7------7------7------7------|----------------------------|

e|----------------------------|4--------4----4--------4----|
B|7--------7----7--------7----|-----4-------------4--------|
G|-----8-------------8--------|---4-------4-----4-------4--|
D|---8-------8-----8-------8--|2------2------2------2------|
A|----------------------------|----------------------------|
E|7------7------7------7------|----------------------------|

e|----------------------------|4--------4----4--------4----|
B|7--------7----7--------7----|-----4-------------4--------|
G|-----8-------------8--------|---4-------4-----4-------4--|
D|---8-------8-----8-------8--|2------2------2------2------|
A|----------------------------|----------------------------|
E|7------7------7------7------|----------------------------|

e|----------------------------|4--------4----4--------4----|
B|7--------7----7--------7----|-----4-------------4--------|
G|-----8-------------8--------|---4-------4-----4-------4--|
D|---8-------8-----8-------8--|2------2------2------2------|
A|----------------------------|----------------------------|
E|7------7------7------7------|----------------------------|

e|3--------3----3--------3----|----------------------------|
B|-----2-------------2--------|5--------5----5--------5----|
G|---3-------3-----3-------3--|-----6-------------6--------|
D|1------1------1------1------|---6-------6-----6-------6--|
A|----------------------------|4------4------4------4------|
E|----------------------------|----------------------------|

e|3--------3----3--------3----|----------------------------|
B|-----2-------------2--------|5--------5----5--------5----|
G|---3-------3-----3-------3--|-----6-------------6--------|
D|1------1------1------1------|---6-------6-----6-------6--|
A|----------------------------|4------4------4------4------|
E|----------------------------|----------------------------|

e|5--------5----5--------5----|----------------------------|
B|-----7-------------7--------|5--------5----5--------5----|
G|---6-------6-----6-------6--|-----6-------------6--------|
D|4------4------4------4------|---6-------6-----6-------6--|
A|----------------------------|4------4------4------4------|
E|----------------------------|----------------------------|

e|5--------5----5--------5----|----------------------------|
B|-----7-------------7--------|5--------5----5--------5----|
G|---6-------6-----6-------6--|-----6-------------6--------|
D|4------4------4------4------|---6-------6-----6-------6--|
A|----------------------------|4------4------4------4------|
E|----------------------------|----------------------------|

e|5--------5----5--------5----|4--------4----4--------4----|
B|-----7-------------4--------|-----4-------------4--------|
G|---6-------6-----4-------4--|---4-------4-----4-------4--|
D|4------4--------------------|2------2------2------2------|
A|--------------2------2------|----------------------------|
E|----------------------------|----------------------------|

e|7--------7----7--------7----|7--------7----7--------7----|
B|-----7-------------7--------|-----6-------------6--------|
G|---7-------7-----7-------7--|---4-------4-----4-------4--|
D|6------6------6------6------|----------------------------|
A|----------------------------|4------4------4------4------|
E|----------------------------|----------------------------|

Here, the piano comes in.

e|5--------5----5--------5----|10-------10---10-------10---|
B|-----7-------------7--------|-----10------------10-------|
G|---6-------6-----6-------6--|---10------10----10------10-|
D|4------4------4------4------|8------8------8------8------|
A|----------------------------|----------------------------|
E|----------------------------|----------------------------|

e|3--------3----3--------3----|3--------3------------------|
B|-----5-------------5--------|-----5--------7--------7----|
G|---4-------4-----4-------4--|---4-------4-------8--------|
D|2------2------2------2------|2------2---------8-------8--|
A|----------------------------|--------------6------6------|
E|----------------------------|----------------------------|

And then we go back into our verse!

e|----------------------------|4--------4----4--------4----|
B|7--------7----7--------7----|-----4-------------4--------|
G|-----8-------------8--------|---4-------4-----4-------4--|
D|---8-------8-----8-------8--|2------2------2------2------|
A|----------------------------|----------------------------|
E|7------7------7------7------|----------------------------|

e|----------------------------|4--------4----4--------4----|
B|7--------7----7--------7----|-----4-------------4--------|
G|-----8-------------8--------|---4-------4-----4-------4--|
D|---8-------8-----8-------8--|2------2------2------2------|
A|----------------------------|----------------------------|
E|7------7------7------7------|----------------------------|

e|----------------------------|4--------4----4--------4----|
B|7--------7----7--------7----|-----4-------------4--------|
G|-----8-------------8--------|---4-------4-----4-------4--|
D|---8-------8-----8-------8--|2------2------2------2------|
A|----------------------------|----------------------------|
E|7------7------7------7------|----------------------------|

e|----------------------------|4--------4----4--------4----|
B|7--------7----7--------7----|-----4-------------4--------|
G|-----8-------------8--------|---4-------4-----4-------4--|
D|---8-------8-----8-------8--|2------2------2------2------|
A|----------------------------|----------------------------|
E|7------7------7------7------|----------------------------|

e|3--------3----3--------3----|----------------------------|
B|-----2-------------2--------|5--------5----5--------5----|
G|---3-------3-----3-------3--|-----6-------------6--------|
D|1------1------1------1------|---6-------6-----6-------6--|
A|----------------------------|4------4------4------4------|
E|----------------------------|----------------------------|

e|3--------3----3--------3----|----------------------------|
B|-----2-------------2--------|5--------5----5--------5----|
G|---3-------3-----3-------3--|-----6-------------6--------|
D|1------1------1------1------|---6-------6-----6-------6--|
A|----------------------------|4------4------4------4------|
E|----------------------------|----------------------------|

e|5--------5----5--------5----|----------------------------|
B|-----7-------------7--------|5--------5----5--------5----|
G|---6-------6-----6-------6--|-----6-------------6--------|
D|4------4------4------4------|---6-------6-----6-------6--|
A|----------------------------|4------4------4------4------|
E|----------------------------|----------------------------|
 |
 |
e|5--------5----5--------5----|----------------------------|
B|-----7-------------7--------|5--------5----5--------5----|
G|---6-------6-----6-------6--|-----6-------------6--------|
D|4------4------4------4------|---6-------6-----6-------6--|
A|----------------------------|4------4------4------4------|
E|----------------------------|----------------------------|

e|5--------5----5--------5----|4--------4----4--------4----|
B|-----7-------------4--------|-----4-------------4--------|
G|---6-------6-----4-------4--|---4-------4-----4-------4--|
D|4------4--------------------|2------2------2------2------|
A|--------------2------2------|----------------------------|
E|----------------------------|----------------------------|
 |
 |
 |
e|7--------7----7--------7----|7--------7----7--------7----|
B|-----7-------------7--------|-----6-------------6--------|
G|---7-------7-----7-------7--|---4-------4-----4-------4--|
D|6------6------6------6------|----------------------------|
A|----------------------------|4------4------4------4------|
E|----------------------------|----------------------------|

And then the little interlude bit again, a little different this time...

e|5--------5----5--------5----|10-------10---10-------10---|
B|-----7-------------7--------|-----10------------10-------|
G|---6-------6-----6-------6--|---10------10----10------10-|
D|4------4------4------4------|8------8------8------8------|
A|----------------------------|----------------------------|
E|----------------------------|----------------------------|

e|3--------3----3--------3----|3--------3--2/3--------3----|
B|-----5-------------5--------|-----5-------------5--------|
G|---4-------4-----4-------4--|---4-------4-----4-------4--|
D|2------2------2------2------|2------2------2------2------|
A|----------------------------|----------------------------|
E|----------------------------|----------------------------|

e|5--------5----5--------5----|10-------10---10-------10---|
B|-----7-------------7--------|-----10------------10-------|
G|---6-------6-----6-------6--|---10------10----10------10-|
D|4------4------4------4------|8------8------8------8------|
A|----------------------------|----------------------------|
E|----------------------------|----------------------------|

e|3--------3----3--------3----|3--------3----3--------3----|
B|-----5-------------5--------|-----5-------------5--------|
G|---4-------4-----4-------4--|---4-------4-----4-------4--|
D|2------2------2------2------|2------2------2------2------|
A|----------------------------|----------------------------|
E|----------------------------|----------------------------|

More verse, a little different too.

e|3--------3----3--------3----|----------------------------|
B|-----2-------------2--------|5--------5--4/5--------5----|
G|---3-------3-----3-------3--|-----6-------------6--------|
D|1------1------1------1------|---6-------6-----6-------6--|
A|----------------------------|4------4------4------4------|
E|----------------------------|----------------------------|

e|3--------3----3--------3----|----------------------------|
B|-----2-------------2--------|5--------5--4/5--------5----|
G|---3-------3-----3-------3--|-----6-------------6--------|
D|1------1------1------1------|---6-------6-----6-------6--|
A|----------------------------|4------4------4------4------|
E|----------------------------|----------------------------|

e|5--------5----5--------5----|----------------------------|
B|-----7-------------7--------|5--------5----5--------5----|
G|---6-------6-----6-------6--|-----6-------------6--------|
D|4------4------4------4------|---6-------6-----6-------6--|
A|----------------------------|4------4------4------4------|
E|----------------------------|----------------------------|

e|5--------5----5--------5----|----------------------------|
B|-----7-------------7--------|5--------5----5--------5----|
G|---6-------6-----6-------6--|-----6-------------6--------|
D|4------4------4------4------|---6-------6-----6-------6--|
A|----------------------------|4------4------4------4------|
E|----------------------------|----------------------------|

e|5--------5----5--------5----|4--------4----4--------4----|
B|-----7-------------4--------|-----4-------------4--------|
G|---6-------6-----4-------4--|---4-------4-----4-------4--|
D|4------4--------------------|2------2------2------2------|
A|--------------2------2------|----------------------------|
E|----------------------------|----------------------------|
 |
e|7--------7----7--------7----|7--------7----7--------7----|
B|-----7-------------7--------|-----6-------------6--------|
G|---7-------7-----7-------7--|---4-------4-----4-------4--|
D|6------6------6------6------|----------------------------|
A|----------------------------|4------4------4------4------|
E|----------------------------|----------------------------|
And the end...


e|7--------7----7--------7----|7---------------------------|
B|-----6-------------6--------|----------------------------|
G|---4-------4-----4-------4--|----------------------------|
D|----------------------------|----------------------------|
A|4------4------4------4------|4---------------------------|
E|----------------------------|----------------------------|


Let the final notes ring out a little.



************************************

| /  Slide up

************************************
Suggest correction
comments
print report bad tab
3 comments total.
+3 reply
Chich1 10 Aug 10, 2011 02:20 AM

I love you.

0 reply
ImMortallity 47 Oct 10, 2013 10:14 AM

It's a very nice tab, but there's one part that sounds off: the part in the interlude where you play A#maj7 (second measure) just doesn't do it for me. I haven't been able to figure out what chord is actually played.
Other than that, great job and keep on tabbing!

0 reply
LaurinMaloo 10 Jan 01, 2014 08:25 AM

The Part "Here, the piano comes in" is wrong. It should be like this:
E|5--------5----5--------5----|5--------5----5--------5----|
B|-----7-------------7--------|-----6-----6-------6------6-|
G|---6-------6-----6-------6--|---5------------5-----------|
D|4------4------4------4------|----------------------------|
A|----------------------------|8------8------8------8------|
E|----------------------------|----------------------------|

|3--------3----3--------3----|3--------3----2---------2---|
|-----5-------------5--------|-----3-----3-------2------2-|
|---4-------4-----4-------4--|---4------------3-----------|
|2------2------2------2------|5------5------4------4------|
|----------------------------|----------------------------|
|----------------------------|----------------------------|

guest
You may want to rate the tab now too:
select rating
Wanna post a correction for this tab? Suggest correction