Oops, an error
Loading. Please wait.

Patina Tab

43 views 1 this week
no commentswrite comment
1 2 3 4 5
3 more votes to show rating
add to favorites
launch autoscroll
font size
0
reset
how to read this tab
guitar tuner
Autoscroll
slow
fast
+/-
esc
set tempo
stop
Help us to improve Ultimate-Guitar.com Take our survey!
×
Author
Difficulty
Capo
intermediate
5th fret
Tuning: standard E, Capo 5


[Verse]

Riff 1 
A|-------------------------------------|
E|--------1p-0-----0-------1p-0-----0--|
C|----0--------0-------2--------0------|
G|------2--------0-------2--------0----|
D|--3----------------0-----------------|
A|-----------3----------------3--------|
Pay attention as the pull-off occurs at the same time as you hit the bass note.


[Semi-Chorus]

Riff 2 
A|----------------------------------|------------------------------------|
E|--------0-------0-------1-------1-|--------0-------0-------1p-0-----0--|
C|----2-------0-------2-------0-----|----2-------0-------2--------0------|
G|------3-------0-------2-------2---|------3-------0-------2--------0----|
D|------------------0-------3-------|------------------0-----------------|
A|--1-------3-----------------------|--1-------3----------------3--------|


[Pre-Chorus]

Riff 3
A|--------------------------------|
E|--------1--------------0--------|
C|----2------2---2---0------0---0-|
G|------3------3-------0------0---|
D|--------------------------------|
A|--1--------------3--------------|


[Chorus]

Riff 4
A|--------------------------------|--------------------------------|
E|--------1--------------0--------|--------1--------------0--------|
C|----2------2---2---0------0---0-|----2------2---2---0------0---0-|
G|------2------2-------2------2---|------3------3-------0------0---|
D|--0-----------------------------|--------------------------------|
A|-----------------0--------------|--1--------------3--------------|


[After-Chorus]

Riff 5
A|----------------------------------|   |---------------3-----------------|
E|---------1---------------------0--|   |--------1---------1--------1-----|
C|*----2------2---2--2---0---0-----*|3x |----2------2----------2p-0---0---|
G|*------3------3------3-------0---*|   |------3------3------3----------3-|
D|----------------------------------|   |---------------------------------|
A|---1---------------------3--------|   |--1------------------------------|


Riff 5* (after 2nd chorus):  (gradually turning into strumming)
A||--------3------3----------------|--------5------5----------------|
E||--------1------1--------------0-|--------1------1--------------0-|
C||----2------2------2---0---0-----|----2------2------2---0---0-----|
G||------3------3------3-------0---|------3------3------3-------0---|
D||--------------------------------|--------------------------------|
A||--1---------------------3-------|--1---------------------3-------|

A|--------3------3----------------|--------3------3----------------||
E|--------1------1--------------0-|--------1------1--------------0-||
C|----2------2------2---0---0-----|----2------2------2---0---0-----||
G|------3------3------3-------0---|------3------3------3-------0---||
D|--------------------------------|--------------------------------||
A|--1---------------------3-------|--1---------------------3-------||


[Break]

(strumming)
C G Am G F   G  (x3)
C G Am G F

Interlude after 2nd Chorus:
Like after-chorus 1, but quieter.


----------------------------------------------------------------------
Lyrics:


[Verse 1]

Long are the days of aimless wanderer
Searching for home in the green
But longer, the days of the ones who squander
Years in a life of routine


[Semi-Chorus 1]

Stay in the light of the forest, sister
Free from the greed in the wire
Nothing can come of a droning system
All that you need is the fire


[Verse 2]

Take to the land like the rushing water
Fight for your life like a lion
Retell the tale of the lowly daughter
Lost in the place where she bides


[Semi-Chorus 2]

Treasure the scars that the woodlands gave you
Make them a sign of your might 
The cold in the wind and the rain may scald you
But freedom it comes at a price


[Chorus]

But along came alone 
With the fear that where you're going may be wrong
While all across the oceans
To these dreams, these gleaming notions we belong

[After-Chorus] Riff 5

[Verse 3]

They say that the time is the greatest fodder
Wait, and you'll find your design
But given the chance we would all work harder
Finding the place where we shine


[Semi-Chorus 3]

Remember the words that the wiseman told you
Water that moves remains clean
The lake will be black in its stagnance soon
So better to drink from the stream


[Verse 4]

There's beauty in longing and desperation
It means that you've not given up
So focus the fervor of your frustration
Use it to fly, not to drop 


[Semi-Chorus 4]

Look to the ground when you feel unmoved
The earth where you stand is untried
Shine as you howl at the rising moon
The point is to live, not survive


[Chorus]

But along came alone
With the fear that where you're going may be wrong
While all across the oceans
To these dreams, these gleaming notions
On an ordinary day they'll come alive

[After-Chorus] Riff 5*

Come alive
Come alive
Come alive
Come alive 


[Break]

Oh, let me hear you howl
Lift your anchor off the ground
The time to live is now


[Verse 5]

Open your eyes, life is all around
You don't have to be so alone
Take a good look at this world you've found
And breathe now, you're finally home



************************************

| p  Pull-off
| *  reprise

************************************
Suggest correction
Give kudos to tab author, rate the tab!
1 2 3 4 5
comments
print report bad tab
guest
You may want to rate the tab now too:
select rating
Wanna post a correction for this tab? Suggest correction