Oops, an error
Loading. Please wait.

Car Song Tab

7,042 views 1 this week
no commentswrite comment
1 2 3 4 5
please rate
add to favorites
launch autoscroll
font size
0
reset
how to read this tab
guitar tuner
Autoscroll
slow
fast
+/-
esc
set tempo
stop
Help us to improve Ultimate-Guitar.com Take our survey!
×
Author
-------------------------------------------------------------------------------
                             CAR SONG - WOODY GUTHRIE
-------------------------------------------------------------------------------
Tabbed by:jonnyboy45

Tuning:Standard

This is far off perfect and hasn't got the fills but it's better than the others 
I could find and it's in the right key.

Have fun playing it your own way!

intro..

    E     A    B    E
e|-------------------------------------------------------------------------|
B|--0--0--2--2--4--4--2----------------------------------------------------|
G|--1--1--2--2--4--4--2----------------------------------------------------|
D|-------------------------------------------------------------------------|
A|-------0--4--2-----------------------------------------------------------|
E|-0--4-----------2--0-----------------------------------------------------|

verse etc

    E     B           E           A     B    E
e|-------------------------------------------------------------------------|
B|--0--0--4--4--4--4--0--0--0--0--2--2--4--4--0--0-------------------------|
G|--1--1--4--4--4--4--1--1--1--1--2--2--4--4--1--1-------------------------|
D|-------------------------------------------------------------------------|
A|-------------------------------0--0--2-----------------------------------|
E|-0--0--2--2--2--2--0--0--0--0-----------2--0--0--------------------------|

continue similar pattern and play around with the chords a little

Take me riding in the car car
Take me riding in the car car
I'll take you riding in the car
I'll take you riding in my car

Click, clack open up the door, girls
Click, clack open up the door, boys
Front door, back door, clickety clack
Take you riding in my car

Climb climb, rattle on the front seat
Spree I spraddle on the back seat
Turn my key, step on my starter
Take you riding in my car

Engine it goes brrrmm, brrrmm
Engine it goes brrrmm, brrrmm
Front seat, back seat, boys and girls
Take you riding in my car

Trees and the houses walk along
Trees and the houses walk along
Truck and a car and a garbage can walk along
Take you riding in my car

Boom buh buh, buh buh buh buh, boom buh boom
Boom boom, buh buh buh buh, boom buh boom
Boom boom, buh buh buh buh, boom buh boom
Boom boom, buh buh buh buh, boom

Ships and the little boats chuck along
Ships and the little boats chuck along
Brrrmm buh buh, boom boom, boom buh boom
Take you riding in my car

I'm a-gonna send you home again
I'm a-gonna send you home again
Boom boom, buh buh boom, rolling home
Take you riding in my car

I'm gonna let you blow the horn
I'm gonna let you blow the horn
A-oora, a-oorah, a-oogah, oogah
I'll take you riding in my car

| /  slide up
| \  slide down
| h  hammer-on
| p  pull-off
| ~  vibrato
| +  harmonic
| x  Mute note
===============================================================================
Suggest correction
Give kudos to tab author, rate the tab!
1 2 3 4 5
comments
print report bad tab
guest
You may want to rate the tab now too:
select rating
Please do not post tabs as comments. Select "correction" instead!