Oops, an error
Loading. Please wait.

Whos Gonna Shoe Your Pretty Little Feet Tab

3,547 views 3 this week
no commentswrite comment
1 2 3 4 5
x 4
add to favorites
launch autoscroll
font size
0
reset
how to read this tab
guitar tuner
Autoscroll
slow
fast
+/-
esc
set tempo
stop
Help us to improve Ultimate-Guitar.com Take our survey!
×
Author
------------------------------------------------------------------------------- 
        Who's Gonna Shoe Your Pretty Little Feet  - Woody Guthrie
-------------------------------------------------------------------------------


This is my attempt at a tab for Who's Gonna Shoe Your Pretty Little Feet, by
Woody Guthrie, as is played on volume 2 of the Asch recordings. I always 
liked this song - there are some really nice harmonies with Cisco. 

The song is in the key of C.  Its in 6/8 time.


Intro/solo:

  C          C                          C                          F                           
e|-----0--0--|------0----------0-------|----0--------------------|-----1--1----------------|
B|-----1--1--|------1----------1-------|----1--------------------|-----1--1----------------|
G|-----0--0--|------0----------0-------|--0-0--------------------|-----2--2----------------|
D|-----------|--0h2----0h2-0h2----0h2--|-------0h2----0-2--------|--3--------3-2-0---------|
A|--3--------|-------------------------|------------3------------|-------------------------|
E|-----------|-------------------------|-------------------------|-------------------------|
   

  C                          F                          C                         
e|-----0--0----------------|-----1--1----------------|----0--------------------|
B|-----1--1----------------|-----1--1----------------|----1--------------------|
G|-----0--0----------------|-----2--2----------------|----0--------------------|
D|-------------0-2---------|--3--------3-2-0---------|-------0h2---------------|
A|--3--------3-------------|-------------------------|--3---------3-2-0--------|
E|-------------------------|-------------------------|-------------------------|


  G
e|-----3--3-----------------|--------|
B|-----0--0-----------------|--------|
G|-----0--0-----------------|--------|
D|--------------------------|--------|
A|-------------0-2----------|--------|
E|--3--------3--------------|--------|
                             (Into Verse)



Verse:

  C                     C          
e|-----0--0-------0--0-|-----0--0-------0--0---|
B|-----1--1-------1--1-|-----1--1-------1--1---|
G|-----0--0-------0--0-|-----0--0-------0--0---|
D|-----2--2-------2--2-|-----2--2-------2--2---|
A|--3----------3-------|--3----------3---------|
E|---------------------|-----------------------|
    Who's..    shoe..     pretty..   feet..        

  F                     C          
e|-----1--1-------1--1-|-----0--0-------0--0---|
B|-----1--1-------1--1-|-----1--1-------1--1---|
G|-----2--2-------2--2-|-----0--0-------0--0---|
D|--3--3--3----3--3--3-|-----2--2-------2--2---|
A|---------------------|--3----------3---------|
E|---------------------|-----------------------|
    who's..    glove..    hand..

  F                     C          
e|-----1--1-------1--1-|-----0--0-------0--0---|
B|-----1--1-------1--1-|-----1--1-------1--1---|
G|-----2--2-------2--2-|-----0--0-------0--0---|
D|--3--3--3----3--3--3-|-----2--2-------2--2---|
A|---------------------|--3----------3---------|
E|---------------------|-----------------------|
    who's..    kiss..     red..      lips..

  G                     C          
e|-----3--3-------3--3-|-----0--0-------0--0---|
B|-----0--0-------0--0-|-----1--1-------1--1---|
G|-----0--0-------0--0-|-----0--0-------0--0---|
D|-----0--0-------0--0-|-----2--2-------2--2---|
A|---------------------|--3----------3---------|
E|--3----------3-------|-----------------------|
    who's..    be..       man..
 

C                                  
Who's gonna shoe your pretty little feet?
F                      C            
Who's gonna glove your hand?
F                     C        
Who's gonna kiss your red ruby lips?
G                   C           
Who's gonna be your man?


Papa's gonna shoe my pretty little feet,
Mama's gonna glove my hand,
Sister's gonna kiss my red ruby lips,
I don't need no man.

I don't need no man,
I don't need no man,
Sister's gonna kiss my red ruby lips,
I don't need no man.

The fastest train I ever did ride,
Was a hundred coaches long,
And the only woman I ever did love,
Was on that train and gone.

On that train and gone, boys,
On that train and gone,
The only woman I ever did love,
On that train and gone.

Who's gonna shoe your pretty little feet?
Who's gonna glove your hand?
Who's gonna kiss your red ruby lips?
Who's gonna be your man?

Papa's gonna shoe my pretty little feet,
Mama's gonna glove my hand,
Sister's gonna kiss my red ruby lips,
I don't need no man.

I don't need no man,
I don't need no man,
Sister's gonna kiss my red ruby lips,
I don't need no man. 
Suggest correction
comments
print report bad tab
guest
You may want to rate the tab now too:
select rating
Wanna post a correction for this tab? Suggest correction