Oops, an error
Loading. Please wait.

Tunnel Of Ions Tab

version 1
version 1

Whole song

Interactive

666 views 1 this week
no commentswrite comment
1 2 3 4 5
please rate
add to favorites
launch autoscroll
font size
0
reset
how to read this tab
guitar tuner
Autoscroll
slow
fast
+/-
esc
set tempo
stop
Help us to improve Ultimate-Guitar.com Take our survey!
×
Contributor
Difficulty
Tuning
advanced
B E A D F# B
--- W O R M E D ---
"Tunnel Of Ions"
From album: "Planisphaerium"
Copyright Macabre Mementos 2003 ©
http://www.myspace.com/wormed


Transcribed by: Yura Kowalchuk
Contact:[yura@grindcore.net]
[yura_kowalchuk@mail.ru]
http://brutaltabs.musica.mustdie.ru
http://www.blood-scrapes.nm.ru

TABULATURE LEGEND:
" - tremolo h - hammer on
~ - vibrato \ - slide down
p - pull off / - slide down
tr - tremolo picking ^ - pinch harmonics
= - sustained note b - bend string
p.m. - palm muting t - tapping
<> - natural harmonic
TUNING: B [B, E, A, D, F#, B]

Comment: The guitar production on this release is very dirty. Its very hard to
transcribe this song absolutly correct. So this is only how I play this song.

"<>" - natural harmonic

[Intro]
|-<5>--------------------------------------------<5>-<5>--|
|-<5>--------------------------------------------<5>-<5>--|
|-<5>--------------------------------------------<5>-<5>--|
|---------------------------------------------------------|
|------3"----------2"-------------3"----------------------|
|---------2"-1"-0"----2"-1"-0"-1"----2"-1"-0"-1"----------|

---------------------------<5>-<5>----------------|
---------------------------<5>-<5>----------------|
---------------------------<5>-<5>----------------|
--------------------------------------------------|
-3"----------2"----------------------3"-----------|
----2"-1"-0"----2"-1"-0"-0---------0----2"-1"-0"--|


|----------------------------<5>-<5>------------------<5>-<5>-----------|
|----------------------------<5>-<5>------------------<5>-<5>-----------|
|----------------------------<5>-<5>------------------<5>-<5>-----------|
|-5-------4--------5-----------------5-------4------------------5-------|
|-3-4-3-2-2-4-3-2--3-4-3-2-3---------3-4-3-2-2-4-3-2------------3-4-3-2-|
|---2-1-0---2-1-0----2-1-0-1-----------2-1-0---2-1-0----------0---2-1-0-|

[...continue]
|-------------------------------------|----------------------|
|-------------------------------------|----------------------|
|-------------------------------------|----------------------|
|-------------------6"----------------|---5---7-6---7-6------|
|----5"-6"-5"----------5"----5"-6"-5"-|-5-3-4-5-4-5-5-4------|
|-4"----------4"-0"-------4"----------|-3---2-----3----------|

-|--------------------------------|
-|--------------------------------|
-|--------^---------------^-------|
-|--------2~------^-------5~------|
-|----------------4~--------------|
-|-000000----0000----0000----0000-|
...... .... .... ....

[Riff 1a (x4)]
||----------------------------||
||o--------------------------o||
||----------------------------||
||----5---7-6---7-6-----------||
||o-5-3-4-5-4-5-5-4-2-5-5-5--o||
||--3---2-----3-----0-3-3-3---||
. . .

[Outro 1]
|--------|---------------------------------|
|--------|---------------------------------|
|--------|---------------------------------|
|--------|---------------------------------|
|-10\----|-2-3------3-2-----3-2-----2-2----|
|--8\----|-0-1------1-0-----1-0-----0-0----|
. . . . . . . .

[Riff 2 (x2)]
||------------------------------------|
||o-----------------------------------|
||------------------------------------|
||------------------------------------|
||o-5-2-3---5-2-3---5-2-3---5-2-2-3---|
||--3-0-1---3-0-1---3-0-1---3-0-0-1---|
. . . . . . . . . . . . .

-|-------------------|----------------------||
-|-------------------|---------------------o||
-|-------------------|----------------------||
-|-------------------|----------------------||
-|-5-2-2-3--5-2-2-3--|-5-2-2-3--5-2-2-3-3--o||
-|-3-0-0-1--3-0-0-1--|-3-0-0-1--3-0-0-1-1---||
. . . . . . . . . . . . . . . . .

[Outro 2]
|-----------------------------------|-<7>------<5>--------------------------|
|-----------------------------------|-<7>------<5>--------------------------|
|-----------------------------------|-<7>------<5>--------------------------|
|-----------------------------------|---------------------------------------|
|-5-2-3---5-2-3----5-2-3---5-2-2-3--|-------------------7"..------8"..------|
|-3-0-1---3-0-1----3-0-1---3-0-0-1--|-----0000-----0000------3"..------3"..-|
. . . . . . . . . . . . . .... ....

---------------|
---------------|
---------------|
---------------|
---------------|
-0"......------|

[Riff 3 (x2)] [ending 1]
||--------------------------|-------------------------|------------------||
||o-------------------------|-------------------------|-----------------o||
||--------------------------|-------------------------|------------------||
||------5-4-----5-4---------|-----5-4-----5-4---------|-----5-4----------||
||o-4-5-3-2-4-5-3-2-4-5-2-3-|-4-5-3-2-4-5-3-2-4-5-2-3-|-4-5-3-2-4-4-----o||
||--2-3-----2-3-----2-3-0-1-|-2-3-----2-3-----2-3-0-1-|-2-3-----2-2------||
| | | |
||--------------------------|-------------------------|------------------||
||o-------------------------|-------------------------|-----------------o||
||--------------------------|-------------------------|------------------||
||------5-4-----5-4---------|-----5-4-----5-4---------|-----5-4----------||
||o-4-5-3-2-4-5-3-2-4-5-2-3-|-4-5-3-2-4-5-3-2-4-5-2-3-|-4-5-3-2-4-4-----o||
||--2-3-----2-3-----2-3-0-1-|-2-3-----2-3-----2-3-0-1-|-2-3-----2-2------||

[ending 2]
|-------------|--------------------------------|
|-------------|--------------------------------|
|-------------|--------------------------------|
|-----5-4-----|--------------------------------|
|-4-5-3-2-4-4-|---------7~~--------------------|
|-2-3-----2-2-|-0-0-0-0-8~~-0-0-0-0-0-0--------|
| | |
|-------------|--------------------------------|
|-------------|--------------------------------|
|-------------|--------------------------------|
|-----5-4-----|--------------------------------|
|-4-5-3-2-4-4-|--------------------------------|
|-2-3-----2-2-|-------------0-0-0-0-0-0--------|

[Riff 4 (x2)] [out]
||---------------------------------||-----------------|
||o-------------------------------o||-----------------|
||---------------------------------||-----------------|
||---------------------------------||-----------------|
||o---------7~~-------------------o||---------7-------|
||--0-0-0-0-8~~-0-0-0-0-0-0--------||-0-0-0-0-8-------|

[RIFF 4 (x8)] [RIFF 1 (x2)]

[RIFF 2 /first abr only!!!!!!/]


[Riff 5] /slow/
|-----|------------------------------|------------------------------|
|-----|------------------------------|------------------------------|
|-----|------------------------------|------------------------------|
|-----|------------------------------|------------------4---1-------|
|-1/2-|-2--3/4-2-1-2--2--3/4-2-1-4-2-|-2--3/4-2-1-2---3---3---2-1-2-|
|-2/3-|-0--1/2-0-2-3--0--1/2-0-2-5-3-|-0--1/2-0-2-3-2-----------2-3-|
. . . . . . . . . . . .

[Outro 2] break
|--------------------------|-----------------------------|-----|
|--------------------------|-----------------------------|-----|
|--------------------------|-----------------------------|-----|
|--------------------------|-----------------------------|-----|
|-2--3/4-2-1-2--2--3/4-2-1-|-2-3-4-2-3-2-1-2-2-3-4-2-2-3-|-----|
|-0--1/2-0-2-3--0--1/2-0-2-|-0-1-2-2-3-2-1-2-0-1-2-2-0-1-|-----|
. . . . . . . . . . . . . . . . .

[Riff 6 (x4)]
||-----------------------------------||
||o---------------------------------o||
||-----------------------------------||
||-----------------------------------||
||o-2-3-4-2-3-2-1-2-2-3-4-2-2-3-7-8-o||
||--0-1-2-2-3-2-1-2-0-1-2-0-2-3-5-6--||
. . . . . . . . . . . . . . . .

[Outro 3]
|------------------------------------------------------|
|------------------------------------------------------|
|------------------------------------------------------|
|-5/6---------------------3\2-----5/6------------------|
|-4/5-----8\7-----4/5-----2\1-----4/5-----8\7----------|
|-----0-0-6\5-0-0-2/3-0-0-----0-0-----0-0-6\5-0-0------|
. . . . . . . . . . . .

[Riff 7]
||------------------------------[x6]-||------------------|
||o---------------------------------o||------------------|
||-----------------------------------||------------------|
||--5/6---------------------3\2------||-5/6--------------|
||o-4/5-----8\7-----4/5-----2\1-----o||-4/5-----8\7------|
||------0-0-6\5-0-0-2/3-0-0-----0-0--||-----0-0-6\5-0-0--|
. . . . . . . . . . . .

[RIFF 2 /second bar only/]

[Outro 4]
|------------------------------------------|
|------------------------------------------|
|------------------------------------------|
|-5/6---------------------3\2-----5/6------|
|-4/5-----8\7-----4/5-----2\1-----4/5------|
|-----0-0-6\5-0-0-2/3-0-0-----0-0-----0-0--|
. . . . . . . . . .

-|-------------------------|-------------------------|
-|-------------------------|-------2-2-2-------2-2-2-|
-|-------3-3-3-------3-3-3-|-------0-0-0-------0-0-0-|
-|-0-0-0-0-0-0-0-0-0-0-0-0-|-0-0-0-------0-0-0-------|
-|-5-5-5-------5-5-5-------|-5-5-5-------5-5-5-------|
-|-3-3-3-------3-3-3-------|-3-3-3-------3-3-3-------|
. . . . . . . . . . . . . . . . . . . . . . . .

[Outro 5] /udner bass/
|-------------|------------|--------------------------|
|-------------|------------|--------------------------|
|-------------|------------|--------------------------|
|-------------|------------|---5---7-6---7-6----------|
|-------5-5-5-|-------2-2--|-5-3-4-5-4-5-5-4-2-5-5-5--|
|-------3-3-3-|-------0-0--|-3---2-----3-----0-3-3-3--|
. . . . . . . . .

-|----------------------------|
-|----------------------------|
-|----------------------------|
-|---5---7-6---7-6------------|
-|-5-3-4-5-4-5-5-4-2-5-5--5---|
-|-3---2-----3-----0-3-3--3---|
. . . .

|-----------------------|--------------------|
|-----------------------|--------------------|
|-----------------------|--------------------|
|---5---7-6---7-6-------|---5---7-6---7-6----|
|-5-3-4-5-4-5-5-4-2-5-5-|-5-3-4-5-4-5-5-4-2--|
|-3---2-----3-----0-3-3-|-3---2-----3-----0--|
. . . .

[Riff 8]
||------------------------------[x4]-||-||----------------------[x2]-|-|
||o---------------------------------o||-||o-------------------------o|-|
||-----------------------------------||-||---------------------------|-|
||-----------------------------------||-||----------6-7--------------|-|
||o-5-------------------------------o||-||o-5-5-7-7-----------------o|-|
||--3-0-0-0-4-0-0-0-2-0-0-0-4-0-0-0--||-||--------------5-7-5-7-4-6--|-|
. . . . . . . . . . . . . . . . . . . . . . . . . . . .

-|---------------------------------||--------------[x2]-||-------------|
-|---------------------------------||o-----------------o||-------------|
-|---------------------------------||-------------------||-------------|
-|---------------------------------||----5-6-5-4--------||-------------|
-|-5-------------------------------||o-2-3-4-3-2-6-5-4-o||-------------|
-|-3-0-0-0-4-0-0-0-2-0-0-0-4-0-0-0-||--0---------4-3-2--||-3-3-3-2-----|
. . . . . . . . . . . . . . . . . . . .

[Riff 9]
|-------||----------------------[x2]-||--------------|
|-------||o-------------------------o||--------------|
|-------||---------------------------||--------------|
|-------||--4-----4-----4-----4------||-4-----4------|
|-6-5-4-||o-2-5-4-2-5-4-2-5-4-2-5-4-o||-2-5-4-2-5-4--|
|-4-3-2-||----3-2---3-2---3-2---3-2--||---3-2---3-2--|

break
-|--------------------------------|-----|
-|--------------------------------|-----|
-|--------------------------------|-----|
-|---5-6-5-4---------5-6-5-4------|-----|
-|-2-3-4-3-2-6-5-4-2-3-4-3-2-6-5--|-----|
-|-0---------4-3-2-0---------4-3--|-----|

[Outro 6]
|-----|----------------------------|---------------|
|-----|----------------------------|---------------|
|-----|----------------------------|---------------|
|-----|----------------------------|---------------|
|-1/2-|-2--3/4-2-1-2--2--3/4-2-1---|-2--3/4-2-1-2--|
|-2/3-|-0--1/2-0-2-3--0--1/2-0-2---|-0--1/2-0-2-3--|
. . . .

[Riff 10 (x2)]
||---------------------||
||o-------------------o||
||---------------------||
||--------4"-----------||
||o----3"----3"-1"----o||
||--2"-------------2"--||

[RIFF 4 (x7)]

END OF SONG
comments
We did not receive enough feedback on this tab! Please rate:
print report bad tab
1 2 3 4 5
I want to post or [tab]
guest
You may want to rate the tab now too:
select rating
Please do not post tabs as comments. Select "correction" instead!