Oops, an error
Loading. Please wait.

Brian In Tampa tab

229 views 15 this week
1 commentread comment
1 2 3 4 5
2 more votes to show rating
add to favorites
×
Save as Personal and add changes to this tab that will be seen only by you. Learn more ›
×
You can save this tab as Personal to edit and correct it or add notes. All changes will be seen only by you. Learn more »
launch autoscroll
font size
0
reset
how to read this tab
guitar tuner
edit
Autoscroll
slow
fast
+/-
esc
set tempo
stop
Author
Difficulty
About this tab version
This is the direct tab received from the band. only consists on three chords played with both picking and strumming. Was this info helpful? Yes No
Brian in Tampa- Worst Party Ever 

[general stuff]
I messaged the band for this tab and they were super friendly and so i decided to put this up for everyone to 
use :) this is the underlying guitar i believe there is some little bits on top but i am unsure of what they 
are. If you can make sure to support the band: https://worstpartyever.bandcamp.com/
i've tried to get the lyrics lined up with when to play it as to help with timing bit you'll have to listen to
it to get exact timings.
enjoy :)

[1st verse section]
note:do not play this as chords rather pick all three notes at the same time

    and it makes sense...and i'll figure out where my times gone 
e|-------------------------------------------------------------------------------|
B|-------------------------------------------------------------------------------|
G|------------7-------------------7------------------7-------------------7-------|
D|------------5-------------------5------------------5-----------------------5---|
A|------------7-------------------5------------------3---------------------------|
E|-------------------------------------------------------------------------------|
                                                 (the last two notes can be heard faintly, not neccessary)

  Because it's two...in the afternoon 
e|------------------------------------|
B|------------------------------------|
G|------------7----7-------------7----|
D|------------5----5-------------5----|
A|------------7----5-------------3----|
E|------------------------------------|

[2nd Verse section]

   and i'll wake up with shoes on..and it's cold out..and your gone 
e|-------------------------------------------------------------------|
B|-------------------------------------------------------------------|
G|---------7--------------7--------------7---------------------------|
D|---------5--------------5--------------5---------------------------|
A|---------7(x8)----------5(x8)----------3(x16)----------------------|
E|-------------------------------------------------------------------|
  
  and i'll go home...and i'll sleep alone again
e|-------------------------------------------------------------------|
B|-------------------------------------------------------------------|
G|----7------------7---------------7---------------------------------|
D|----5------------5---------------5---------------------------------|
A|----7(x8)--------5(x8)-----------3(x16)----------------------------|
E|-------------------------------------------------------------------|

  and you miss.....how my beard was then
e|-------------------------------------------------------------------|
B|-------------------------------------------------------------------|
G|------7-------7------------------7---------------------------------|
D|------5-------5------------------5---------------------------------|
A|------7(x8)---5(x8)--------------3(x16)----------------------------|
E|-------------------------------------------------------------------|

[Chorus]
  cause you...and i.....sing so compulsively
e|-------------------------------------------------------------------|
B|-------------------------------------------------------------------|
G|------7------7----------7------------------------------------------|
D|------5------5----------5------------------------------------------|
A|------7(x8)--5(x8)------3(x16)-------------------------------------|
E|-------------------------------------------------------------------|







Suggest correction
Creating personal tab
Creating personal tab
You can edit any tab online and save it as your Personal.

You can edit, replace or remove any tab part or add personal notes – all changes will be seen only by you.

Personal tabs can be accessed anytime from any device, even offline.
Learn more »
Give kudos to tab author, rate the tab!
1 2 3 4 5
comments
print report bad tab
1 comment total.
0 reply
Nadiiran 10 Jul 31, 2017 02:01 AM

I dont know what it is but this doesnt really sound like the song...

guest
You may want to rate the tab now too:
select rating
Wanna post a correction for this tab? Suggest correction