Oops, an error
Loading. Please wait.

Higher Tab

6,758 views 6 this week
no commentswrite comment
1 2 3 4 5
excellent!
x 7
add to favorites
launch autoscroll
font size
0
reset
how to read this tab
guitar tuner
Autoscroll
slow
fast
+/-
esc
set tempo
stop
Help us to improve Ultimate-Guitar.com Take our survey!
×
Author
Difficulty
novice
-------------------------------------------------------------------------------
                             HIGHER - Worth Dying For
-------------------------------------------------------------------------------
Tabbed by: makutoid
Email: makutoid_@hotmail.com

Tuning: Standard


Intro Riff (Gtr 1)
e|-----------------------------------------|
B|-------------------------------12-12-9-9-|
G|-9-------9-9-------9-9-------9-----------|
D|---11-11-----11-11-----11-11-------------|
A|-----------------------------------------|
E|-----------------------------------------|

Intro Chords (Gtr 2)
   C#m    G#m    B      F#m
e|------|------|------|------|
B|------|------|------|------|
G|-6----|------|-4----|------|
D|-6----|-6----|-4----|-4----|
A|-4----|-6----|-2----|-4----|
E|------|-4----|------|-2----|
__________________________________________________

Verse
   C#m         E           A           F#m
e|-----------|-----------|-----------|-----------|
B|-----------|-----------|-----------|-----------|
G|-6---------|-9---------|-2---------|-----------|
D|-6---------|-9---------|-2---------|-4---------|
A|-4---------|-7---------|-0---------|-4---------|
E|-----------|-----------|-----------|-2---------|

           C#m                  E
Jesus your name, is more than a name,
              A                   F#m
It's given me hope, it's given me life,
           C#m             E
Jesus your name, be lifted high
         A              F#m
No other name but Jesus saves
__________________________________________________

Chorus
   C#m     D#  E       F#m C#m     D#  E       F#m
e|-----------|-----------|-----------|-----------|
B|-----------|-----------|-----------|-----------|
G|-6-------8-|-9---------|-6-------8-|-9---------|
D|-6-------8-|-9-------4-|-6-------8-|-9-------4-|
A|-4-------6-|-7-------4-|-4-------6-|-7-------4-|
E|-----------|---------2-|-----------|---------2-|
   A           F#m         C#m     D#  E
e|-----------|-----------|-----------|-----------|
B|-----------|-----------|-----------|-----------|
G|-2---------|-----------|-6-------8-|-9---------|
D|-2---------|-4---------|-6-------8-|-9---------|
A|-0---------|-4---------|-4-------6-|-7---------|
E|-----------|-2---------|-----------|-----------|

     C#m           D#   E
Your name is higher, is higher
F#m  C#m           D#   E
Your name is high above all
F#m  A                  F#m
You love is greater, is greater
     C#m                D# E
Your name has conquered it all
__________________________________________________

Verse 2
Jesus your life, poured out for all
Ransomed my heart, rescued my soul
King over all, coming again
Death could not hold you, forever you reign
     A
You reign
__________________________________________________

Bridge
   C#m     G#m A       F#m C#m     G#m A           F#m
e|-----------|-----------|-----------|-----------|-----------|
B|-----------|-----------|-----------|-----------|-----------|
G|-6---------|-----------|-6---------|-----------|-----------|
D|-6-------6-|-7-------4-|-6-------6-|-7---------|-4---------|
A|-4-------6-|-7-------4-|-4-------6-|-7---------|-4---------|
E|---------4-|-5-------2-|---------4-|-5---------|-2---------|

C#m                     G#m A
Nails couldn't keep you down
                           F#m C#m
The grave couldn't keep you in
                       G#m A
Hell couldn't keep you out
               F#m
You reign, You reign
_________________________________________________

Outro
   C#m         D#          E           F#m
e|-----------|-----------|-----------|-----------|
B|-----------|-----------|-----------|-----------|
G|-6---------|-8---------|-9---------|-----------|
D|-6---------|-8---------|-9---------|-4---------|
A|-4---------|-6---------|-7---------|-4---------|
E|-----------|-----------|-----------|-2---------|

                 C#m
Your name is higher


It's fairly straight forward overall, but it is a little more complex than your average
Planetshakers or Audacious song! In the chorus and bridge there are a lot of leading
chords which come before the first beat of the bar, most of which are half a tone down 
from the next full chord change. It's all pretty easy to hear on the track so as long as you
follow the chords/tabs then you should be fine!

Email me if there are any problems and I'll try and help you out! Enjoy :)


************************************

| /   slide up
| \   slide down
| h   hammer-on
| p   pull-off
| ~   vibrato
| +   harmonic
| x   Mute note
| b   Bend
| pb  Pre-bend
| br  Bend release
| pbr Pre-bend release
| brb Bend release bend

************************************
Suggest correction
What's this?
You can suggest a correction to this tab. Community and Mods will review your correction and vote to approve or reject it.
comments
print report bad tab
guest
You may want to rate the tab now too:
select rating
Please do not post tabs as comments. Select "correction" instead!