Oops, an error
Loading. Please wait.

No Love Greater tab

version 1
version 1

Whole song

82 views 3 this week
no commentswrite comment
1 2 3 4 5
3 more votes to show rating
add to favorites
×
Save as Personal and add changes to this tab that will be seen only by you. Learn more ›
×
You can save this tab as Personal to edit and correct it or add notes. All changes will be seen only by you. Learn more »
launch autoscroll
font size
0
reset
how to read this tab
guitar tuner
edit
Autoscroll
slow
fast
+/-
esc
set tempo
stop
Author
Difficulty
Artist: Worth Dying For
Song: No Love Greater
Tuning: Standard

Tabbed by: Uchitachi33
E-mail: Uchitachi33@gmail.com

This is all tabbed by ear except the intro. Of course the solo was the hardest
to figure out and I'm 100% sure it's right. At the bridge, I have no idea what
the solo plays, sorry and the rhythm there maybe also not perfect. Any corrections are welcomed.

Intro/verse 1 x3

e----------------------------------------------------------------------------|
B----------------------------------------------------------------------------|
G--------------------------------------------7------------------4------------|
D--------4-----------------4-------------------------------------------------|
A--------------------------------------5--5-----5--5--5--2--2-----2--2--2----|
E--2--2-----2--2--2--2--2-----2--2--2----------------------------------------|

Pre-chorus

e|---------------------------------------------------------------------------|
B|---------------------------------------------------------------------------|
G|-7--7-7--7--7--7--7--11-11-9--9-9--9--9--9--9--6--6------------------------|
D|-7--7-7--7--7--7--7--11-11-9--9-9--9--9--9--9--6--6------------------------|
A|-5--5-5--5--5--5--5--9--9--7--7-7--7--7--7--7--4--4------------------------|
E|---------------------------------------------------------------------------|

e|---------------------------------------------------------------------------|
B|---------------------------------------------------------------------------|
G|-7--7-7--7--7--7--7--11-11-9--9-9--9--9--9\--------------------------------|
D|-7--7-7--7--7--7--7--11-11-9--9-9--9--9--9\--------------------------------|
A|-5--5-5--5--5--5--5--9--9--7--7-7--7--7--7\--------------------------------|
E|---------------------------------------------------------------------------|

Chorus

e|---------------------------------------------------------------------------|
B|---------------------------------------------------------------------------|
G|-------------------------4--4--4--4--4--4--4--4--7--7--7--7--7--7--7--7----|
D|-4--4--4--4--4--4--4--4--4--4--4--4--4--4--4--4--7--7--7--7--7--7--7--7----|
A|-4--4--4--4--4--4--4--4--2--2--2--2--2--2--2--2--5--5--5--5--5--5--5--5----|
E|-2--2--2--2--2--2--2--2----------------------------------------------------|

e|---------------------------------------------------------------------------|
B|---------------------------------------------------------------------------|
G|-9--9--9--9--9--6--6--6--6--6--6-------------------------------------------|
D|-9--9--9--9--9--6--6--6--6--6--6-------------------------------------------|
A|-7--7--7--7--7--4--4--4--4--4--4-------------------------------------------|
E|---------------------------------------------------------------------------|

Interlude (played by guitar 2)

e----------------------------------------------------------------------------|
B----------------------------------------------------------------------------|
G----------------------------------------------------------------------------|
D--------4-----------------4-------------------------------------------------|
A----------------------------------------------------------------------------|
E--2--2-----2--2--2--2--2-----2--2-------------------------------------------|

Verse 2 x2

e|---------------------------------------------------------------------------|
B|---------------------------------------------------------------------------|
G|-------------------------7--7-7--7--4--4-4---------------------------------|
D|----4--4-4--2-4--4-4--4--7--7-5--7--4--4-4---------------------------------|
A|----4--4-4--2-4--4-4--4--5--5-5--5--2--2-2---------------------------------|
E|-0--2--2-2--0-2--2-2--2----------------------------------------------------|

Pre-chorus

Chorus x2

e|---------------------------------------------------------------------------|
B|---------------------------------------------------------------------------|
G|-------------------------4--4--4--4--4--4--4--4--7--7--7--7--7--7--7--7----|
D|-4--4--4--4--4--4--4--4--4--4--4--4--4--4--4--4--7--7--7--7--7--7--7--7----|
A|-4--4--4--4--4--4--4--4--2--2--2--2--2--2--2--2--5--5--5--5--5--5--5--5----|
E|-2--2--2--2--2--2--2--2----------------------------------------------------|

e|-----------------------------|                         |-------------------|
B|-----------------------------|   The second time       |-------------------|
G|-9--9--9--9--6--6--6--6------|   it ends with this     |-------------------|
D|-9--9--9--9--6--6--6--6------|                         |-4-----------------|
A|-7--7--7--7--4--4--4--4------|                         |-------------------|
E|-----------------------------|                         |-2-----------------|

Bridge x2

e|---------------------------------------------------------------------------|
B|---------------------------------------------------------------------------|
G|---------------------------------------------------------------------------|
D|---------------------------------------------------------------------------|
A|-------2-2-2-0-0-0-0-0-4-4-4------2-2-2-0-0-0-0-4-5-4-0--------------------|
E|-2-2-2-----------------------2-2-2-----------------------------------------|

e|---------------------------------------------------------------------------|
B|---------------------------------------------------------------------------|
G|---------------------------------------------------------------------------|
D|---------------------------------------------------------------------------|
A|-------2-2-2-0-0-0-0-0-4-4-4-5-5-5-5-4-4-4-4-2-2-2-2-4-4-4-4---------------|
E|-2-2-2---------------------------------------------------------------------|


Solo (guitar 1 plays the chorus and finishes on a F#)

e|-12------------9-----9-----------------------------------------------------|
B|-12b-----------10----10----------------------------------------------------|
G|-----9-11-9-11----11----11-11--9-9-9-9-11-11-11-11-13-13-13-13-11-11-11-11-|
D|---------------------------------------------------------------------------|
A|---------------------------------------------------------------------------|
E|---------------------------------------------------------------------------|
                                 -------------------------------------------tremolo picking

e|-17p14-------17p14-17b-17--19p17-------19p17-19b-19-17-19-19-19------------|
B|-------17p14---------------------19p17-------------------------------------|
G|---------------------------------------------------------------------------|
D|---------------------------------------------------------------------------|
A|---------------------------------------------------------------------------|
E|---------------------------------------------------------------------------|

e|-19-17--17-----------------------------------------------------------------|
B|------19--19-17-19-17--17--------------------------------------------------|
G|---------------------18--18-16-18\--14h16-16p14--14------------------------|
D|-----------------------------------------------16--16-14-16-14-------------|
A|--------------------------------------------------------------16--12-14----|
E|---------------------------------------------------------------------------|

e|---------------------------------------------------------------------------|
B|---------------------------------------------------------------------------|
G|---------------------------------------------------------------------------|
D|---------------------------------------------------------------------------|
A|-12-14b---9~~~~\-----------------------------------------------------------|
E|---------------------------------------------------------------------------|

Interlude 2 (let ring all chords)

e|---------------------------------------------------------------------------|
B|---------------------------------------------------------------------------|
G|------7----9----6\---------------------------------------------------------|
D|-4----7----9----6\----x-x-x------------------------------------------------|
A|-4----5----7----4\----x-x-x------------------------------------------------|
E|-2--------------------x-x-x------------------------------------------------|

Chorus

Outro

Guitar 1

e|---------------------------------------------------------------------------|
B|---------------------------------------------------------------------------|
G|---------------------------------------------------------------------------|
D|-4-4-4-4--4-2-4\-----------------------------------------------------------|
A|-4-4-4-4--4-2-4\-----------------------------------------------------------|
E|-2-2-2-2--2-0-2\-----------------------------------------------------------|

Guitar 2

e|---------------------------------------------------------------------------|
B|-7-7-7-7--7-5-7~\----------------------------------------------------------|
G|---------------------------------------------------------------------------|
D|-4-4-4-4--4-2-4~\----------------------------------------------------------|
A|---------------------------------------------------------------------------|
E|---------------------------------------------------------------------------|

            
            
Suggest correction
Creating personal tab
Creating personal tab
You can edit any tab online and save it as your Personal.

You can edit, replace or remove any tab part or add personal notes – all changes will be seen only by you.

Personal tabs can be accessed anytime from any device, even offline.
Learn more »
Give kudos to tab author, rate the tab!
1 2 3 4 5
comments
print report bad tab
guest
You may want to rate the tab now too:
select rating
Wanna post a correction for this tab? Suggest correction