Oops, an error
Loading. Please wait.

Revolution Bass Tab

962 views 1 this week
no commentswrite comment
1 2 3 4 5
please rate
add to favorites
launch autoscroll
font size
0
reset
guitar tuner
Autoscroll
slow
fast
+/-
esc
set tempo
stop
Help us to improve Ultimate-Guitar.com Take our survey!
×
Author
Worth Dying For - Revolution
Tunning: Standard

Intro
|-888\333/444\111111------------------|
|-------------------111---------------|
|----------------------111/222--------|
|-----------------------------4-4-4-4-|

Verse
|----------------------------------------|     
|----------------------------------------| 
|----------------------------------------|     
|-4--4--44--7--7--77--0--0--00--2--2--22-|x2     

|--------------------------------------------------------------|
|--------------------------------------------------------------|
|--------------------------------------------------------------|
|-/1212----12-10-9-11----77----12-11-9-11----1212----12-11-9-7-|

|--------------------------------|
|--------------------------------|
|--------------------------------|
|-7-7-7-7-7-7-7-7-2-2-2-2-2-2-22-|

Chorus
|--------------------------------------------|
|--------------------------------------------|
|--------------------------------------------|
|-4--4----4--7--7----7--0--0----0--2--2----2-|

|--------------------------------------------|
|--------------------------------------------|
|--------------------------------------------|
|-4--4----4--7--7----7--0--0----0-2-2----4-4-|

Verse
|----------------------------------------|     
|----------------------------------------| 
|----------------------------------------|     
|-4--4--44--7--7--77--0--0--00--2--2--22-|x2     

|--------------------------------------------------------------|
|--------------------------------------------------------------|
|--------------------------------------------------------------|
|-/1212----12-10-9-11----77----12-11-9-11----1212----12-11-9-7-|

|--------------------------------|
|--------------------------------|
|--------------------------------|
|-7-7-7-7-7-7-7-7-2-2-2-2-2-2-22-|

Chorus x2
|--------------------------------------------|
|--------------------------------------------|
|--------------------------------------------|
|-4--4----4--7--7----7--0--0----0--2--2----2-|

|--------------------------------------------|
|--------------------------------------------|
|--------------------------------------------|
|-4--4----4--7--7----7--0--0----0-2-2----4-4-|

Interlude
|-888\333/444\111111------------------|
|-------------------111---------------|
|----------------------111/222--------|
|-----------------------------4-4-4-4-|

Bridge
|--------------------------------------------------------------|
|--------------------------------------------------------------| 
|--------------------------------------------------------------|
|-4--4----4--4----0--0----0--0----7--7----7--7----2--2----2--2-|x2

Verse
|--------------------------------------------------------------|
|--------------------------------------------------------------|
|--------------------------------------------------------------|
|-/1212----12-10-9-11----77----12-11-9-11----1212----12-11-9-7-|

|------------------------------------|
|------------------------------------|
|------------------------------------|
|-7-7-7-7-7-7-7-7-2-2-2-2-2-2-22-12\-|

~Rest~

Chorus
|--------|--------------------------------------------|
|--------|--------------------------------------------|
|--------|--------------------------------------------|
|-22--44-|-4--4----4--7--7----7--0--0----0--2--2----2-|

|--------------------------------------------|
|--------------------------------------------|
|--------------------------------------------|
|-4--4----4--7--7----7--0--0----0-2-2----4-4-|

Bridge
|--------------------------------------------------------------|
|--------------------------------------------------------------| 
|--------------------------------------------------------------|
|-4--4----4--4----0--0----0--0----7--7----7--7----2--2----2--2-|x2

~Rest~

Ending
|------------------------------------------------------------------|
|------------------------------------------------------------------|
|------------------------------------------------------------------|
|-4-4----4-4--4----7-7----7-7--7----0-0----0-0--0----2-2----2-2--2-|x3

|------------------------------------------------------|
|------------------------------------------------------|
|------------------------------------------------------|
|-4-4----4-4--4----7-7----7-7--7----0-0----0-0--0----2-|

REDONE
Suggest correction
Give kudos to tab author, rate the tab!
1 2 3 4 5
comments
print report bad tab
guest
You may want to rate the tab now too:
select rating
Please do not post tabs as comments. Select "correction" instead!