Oops, an error
Loading. Please wait.

Revolution Tab

441 views 1 this week
no commentswrite comment
1 2 3 4 5
please rate
add to favorites
launch autoscroll
font size
0
reset
how to read this tab
guitar tuner
Autoscroll
slow
fast
+/-
esc
set tempo
stop
Help us to improve Ultimate-Guitar.com Take our survey!
×
Author
Difficulty
novice
-------------------------------------------------------------------------------
                             REVOLUTION - Worth Dying For
-------------------------------------------------------------------------------
Tabbed by: makutoid
Email: makutoid_@hotmail.com

Tuning: Standard

Intro Riff
e|------------------------------|------------------------------|
B|------------------------------|------------------------------|
G|--8-8-8-----------------------|--8-8-8-----------------------|
D|--------8-8-8-9-9-9-6-6--6--6-|--------8-8-8-9-9-9-6-6--6--6-|
A|------------------------------|------------------------------|
E|------------------------------|------------------------------|


Verse
   G#          B             E              F#
e|-------------------------|-------------------------|
B|-------------------------|-------------------------|
G|-------------4--4--4-4-4-|-------------------------|
D|-6--6--6-6-6-4--4--4-4-4-|-2--2--2-2-2-4--4--4-4-4-|
A|-6--6--6-6-6-2--2--2-2-2-|-2--2--2-2-2-4--4--4-4-4-|
E|-4--4--4-4-4-------------|-0--0--0-0-0-2--2--2-2-2-|

   G#          B             E              F#
e|-------------------------|-------------------------|
B|-------------------------|-------------------------|
G|-------------4--4--4-4-4-|-------------------------|
D|-6--6--6-6-6-4--4--4-4-4-|-2--2--2-2-2-4--4--4-4-4-|
A|-6--6--6-6-6-2--2--2-2-2-|-2--2--2-2-2-4--4--4-4-4-|
E|-4--4--4-4-4-------------|-0--0--0-0-0-2--2--2-2-2-|


PreChorus
   E           G#    F#     E           G#    F#
e|------------------------|------------------------|
B|------------------------|------------------------|
G|------------------------|------------------------|
D|-2--2---2-2--6--6--4--4-|-2--2---2-2--6--6--4--4-|
A|-2--2---2-2--6--6--4--4-|-2--2---2-2--6--6--4--4-|
E|-0--0---0-0--4--4--2--2-|-0--0---0-0--4--4--2--2-|

   E           G#    F#     E               F#
e|------------------------|---------------------------------|
B|------------------------|---------------------------------|
G|------------------------|---------------------------------|
D|-2--2---2-2--6--6--4--4-|-2-2-2-2-2-2-2-2-4-4-4-4-4-4-4-4-|
A|-2--2---2-2--6--6--4--4-|-2-2-2-2-2-2-2-2-4-4-4-4-4-4-4-4-|
E|-0--0---0-0--4--4--2--2-|-0-0-0-0-0-0-0-0-2-2-2-2-2-2-2-2-|


Chorus
   G#          B             E              F#
e|-------------------------|-------------------------|
B|-------------------------|-------------------------|
G|-------------4--4--4-4-4-|-------------------------|
D|-6--6--6-6-6-4--4--4-4-4-|-2--2--2-2-2-4--4--4-4-4-|
A|-6--6--6-6-6-2--2--2-2-2-|-2--2--2-2-2-4--4--4-4-4-|
E|-4--4--4-4-4-------------|-0--0--0-0-0-2--2--2-2-2-|

   G#          B             E              F#
e|-------------------------|-------------------------|
B|-------------------------|-------------------------|
G|-------------4--4--4-4-4-|-------------------------|
D|-6--6--6-6-6-4--4--4-4-4-|-2--2--2-2-2-4--4--4-4-4-|
A|-6--6--6-6-6-2--2--2-2-2-|-2--2--2-2-2-4--4--4-4-4-|
E|-4--4--4-4-4-------------|-0--0--0-0-0-2--2--2-2-2-|


Interlude
   G#                       G             F#        G           G#
e|--------------------------------------|--------------------------------------|
B|--------------------------------------|--------------------------------------|
G|-13--13---13--13-13-13-13-12-12-12-12-|-11-11--11-12-12-12-12-13--13---13-13-|
D|--------------------------------------|--------------------------------------|
A|-11--11---11--11-11-11-11-10-10-10-10-|-9--9---9--10-10-10-10-11--11---11-11-|
E|--------------------------------------|--------------------------------------|


Bridge (we are the sound...)
   G#                     E
e|----------------------|----------------------|
B|----------------------|----------------------|
G|----------------------|----------------------|
D|-6--6--x-x--6--6--x-x-|-2--2--x-x--2--2--x-x-|
A|-6--6--x-x--6--6--x-x-|-2--2--x-x--2--2--x-x-|
E|-4--4--x-x--4--4--x-x-|-0--0--x-x--0--0--x-x-|

   B                      F#
e|----------------------|----------------------|
B|----------------------|----------------------|
G|-4--4--x-x--4--4--x-x-|----------------------|
D|-4--4--x-x--4--4--x-x-|-4--4--x-x--4--4--x-x-|
A|-2--2--x-x--2--2--x-x-|-4--4--x-x--4--4--x-x-|
E|----------------------|-2--2--x-x--2--2--x-x-|


Tag (today, today...)
   G#              B                 F#              C#
e|---------------------------------|-------------------------------------------|
B|---------------------------------|-------------------------------------------|
G|-----------------4-4-4-4-4-4-4-4-|-----------------6-6-6-6-6-6-6-6-----------|
D|-6-6-6-6-6-6-6-6-4-4-4-4-4-4-4-4-|-4-4-4-4-4-4-4-4-6-6-6-6-6-6-6-6-----------|
A|-6-6-6-6-6-6-6-6-2-2-2-2-2-2-2-2-|-4-4-4-4-4-4-4-4-4-4-4-4-4-4-4-4-----------|
E|-4-4-4-4-4-4-4-4-----------------|-2-2-2-2-2-2-2-2---------------------------|


Structurally it's "unusual" in comparison to a lot of Christian rock, but it's a great
song to play. The interlude between 1st chorus and 2nd first is a bit strange (this is
for a drummer's reference really) as it feels like it's either too long or too short) 
but it sounds cool :)

Hope there aren't any problems with it, email me with any corrections or questions etc

makutoid_@hotmail.com

************************************

| /   slide up
| \   slide down
| h   hammer-on
| p   pull-off
| ~   vibrato
| +   harmonic
| x   Mute note
| b   Bend
| pb  Pre-bend
| br  Bend release
| pbr Pre-bend release
| brb Bend release bend

************************************
Suggest correction
What's this?
You can suggest a correction to this tab. Community and Mods will review your correction and vote to approve or reject it.
comments
We did not receive enough feedback on this tab! Please rate:
print report bad tab
1 2 3 4 5
guest
You may want to rate the tab now too:
select rating
Please do not post tabs as comments. Select "correction" instead!