Oops, an error
Loading. Please wait.

Through Your Eyes Tab

506 views 1 this week
no commentswrite comment
1 2 3 4 5
3 more votes to show rating
add to favorites
launch autoscroll
font size
0
reset
how to read this tab
guitar tuner
Autoscroll
slow
fast
+/-
esc
set tempo
stop
Help us to improve Ultimate-Guitar.com Take our survey!
×
Author
Difficulty
novice
-------------------------------------------------------------------------------
                      THROUGH YOUR EYES - Worth Dying For
-------------------------------------------------------------------------------
Tabbed by: makutoid
Email: liamthomas93@gmail.com

Tuning: Standard


Intro/Main Riff
   B    D    C# B   D   C# B   D    E D C# B
e|------------------------------------------|
B|------------------------------------------|
G|-4-4---7--7-6-4---7--7-6-4---7--7-9-7-6-4-|
D|-4-4---7--7-6-4---7--7-6-4---7--7-9-7-6-4-|
A|-2-2---5--5-4-2---5--5-4-2---5--5-7-5-4-2-|
E|------------------------------------------|


Verse 1
Bm         D               A
  Take the broken parts of me
    G               Bm
  Repair my willing heart
           D              A
  I put my faith in the unseen
             G
  I feel you right beside me


PreChorus (Break me down, and take me over)
   B    D    C# B   D   C# B   D    E D C# B
e|------------------------------------------|
B|------------------------------------------|
G|-4-4---7--7-6-4---7--7-6-4---7--7-9-7-6-4-|
D|-4-4---7--7-6-4---7--7-6-4---7--7-9-7-6-4-|
A|-2-2---5--5-4-2---5--5-4-2---5--5-7-5-4-2-|
E|------------------------------------------|


Chorus
Bm                      D
  I hear you calling my name,
                 A
  I'm broken and changed,
               G
  So I'll let out what's on the inside.
Bm           D               A
  I'll stand up, and be your love,
              G
  Just let me see the world through your eyes


Break (after second chorus)
   D    B     F#  D    B    D    B     F#  D    B
e|------------14----------|------------14----------|
B|-15---12--------15---12-|-15---12--------15---12-|
G|------------------------|------------------------|
D|------------------------|------------------------|
A|------------------------|------------------------|
E|------------------------|------------------------|


Bridge Riff (I'm never going back...)

e|---------------------|----|
B|---------------------|----|
G|-4-------------------|----|
D|-4-------------2-----|-x8-|
A|-2---5-2-5-2-5---5-2-|----|
E|---------------------|----|


The "break" before the bridge is played on piano, but I tabbed it out just because 
that's how we usually play it at our youth group. Structure of the song is pretty 
standard, nothing unusual. I'm unsure of chords for the bridge, but the riff is 
pretty accurate but you might have to listen out for it, it's been a while since 
I've heard the CD version. Enjoy :)


************************************

| /   slide up
| \   slide down
| h   hammer-on
| p   pull-off
| ~   vibrato
| +   harmonic
| x   Mute note
| b   Bend
| pb  Pre-bend
| br  Bend release
| pbr Pre-bend release
| brb Bend release bend

************************************
Suggest correction
Give kudos to tab author, rate the tab!
1 2 3 4 5
comments
print report bad tab
guest
You may want to rate the tab now too:
select rating
Wanna post a correction for this tab? Suggest correction