Oops, an error
Loading. Please wait.

Youre Alive Tab

1,025 views 1 this week
no commentswrite comment
1 2 3 4 5
please rate
add to favorites
launch autoscroll
font size
0
reset
how to read this tab
guitar tuner
Autoscroll
slow
fast
+/-
esc
set tempo
stop
Help us to improve Ultimate-Guitar.com Take our survey!
×
Author
Difficulty
novice
-------------------------------------------------------------------------------
                           YOU'RE ALIVE - Worth Dying For
-------------------------------------------------------------------------------
Tabbed by: makutoid
Email: makutoid_@hotmail.com

Tuning: Standard

Intro Riff
   D      B    D      B              D      B    D      B
e|---------------------------------|---------------------------------|
B|---------------------------------|---------------------------------|
G|-7-7-7-------7-7-7-------x-x-x-x-|-7-7-7-------7-7-7-------x-x-x-x-|
D|-7-7-7--9----7-7-7--9----x-x-x-x-|-7-7-7--9----7-7-7--9----x-x-x-x-|
A|-5-5-5--9----5-5-5--9----x-x-x-x-|-5-5-5--9----5-5-5--9----x-x-x-x-|
E|--------7-----------7------------|--------7-----------7------------|


Verse
   B                                 D
e|---------------------------------|-------------------------------|
B|---------------------------------|-------------------------------|
G|---------------------------------|-----7-----7-----7-----7-----9-|
D|-----7-----7-----7-----7-----7h9-|-7-7---7-7---7-7---7-7---7-7---|
A|-9-9---9-9---9-9---9-9---9-9-----|-5-5---5-5---5-5---5-5---5-5---|
E|-7-7---7-7---7-7---7-7---7-7-----|-------------------------------|

   E                                 B
e|---------------------------------|----------------------------------|
B|---------------------------------|----------------------------------|
G|-----9-----9-----9-----9-----9---|----------------------------------|
D|-9-9---9-9---9-9---9-9---9-9-----|------7h9-----7h9-----7h9-----7h9-|
A|-7-7---7-7---7-7---7-7---7-7-----|--9-9-------9-----9-9-------9-----|
E|---------------------------------|--7-7-------7-----7-7-------7-----|


Chorus
   B       D       G       E         B       D       G       E
e|---------------------------------|---------------------------------|
B|-----------------8-8-8-8---------|-----------------8-8-8-8---------|
G|-4-4-4-4-7-7-7-7-7-7-7-7-9-9-9-9-|-4-4-4-4-7-7-7-7-7-7-7-7-9-9-9-9-|
D|-4-4-4-4-7-7-7-7-5-5-5-5-9-9-9-9-|-4-4-4-4-7-7-7-7-5-5-5-5-9-9-9-9-| x2?
A|-2-2-2-2-5-5-5-5---------7-7-7-7-|-2-2-2-2-5-5-5-5---------7-7-7-7-|
E|---------------------------------|---------------------------------|


Interlude/Bridge
   B
e|----------------------------------------------------|
B|-------------------------------palm-muted-----------|
G|----------------------------------------------------|
D|-9--9----9-9-9--9----9-9-9--9----9-9-9--9-9-9-9-9-9-|
A|-9--9----9-9-9--9----9-9-9--9----9-9-9--9-9-9-9-9-9-| repeated 4 times maybe?
E|-7--7----7-7-7--7----7-7-7--7----7-7-7--7-7-7-7-7-7-|


Bridge Riff
   B                        D  E   B                        G   F#
e|-------------------------------|---------------------------------|
B|-------------------------------|---------------------------------|
G|--------------------------7--9-|--------------------------12--11-|
D|-9-9---9-9-9---9-9-9---9--7--9-|-9-9---9-9-9---9-9-9---9--12--11-|
A|-9-9---9-9-9---9-9-9---9--5--7-|-9-9---9-9-9---9-9-9---9--10--9--|
E|-7-7---7-7-7---7-7-7---7-------|-7-7---7-7-7---7-7-7---7---------|


Interlude back to Chorus
   B
e|--------------------------|
B|--------------------------|
G|--------------------------|
D|------7---7h9-----7---7h9-|
A|--9-9---9-----9-9---9-----|
E|--7-7---7-----7-7---7-----|


The verse is as close as I could hear, as the mix isn't particularly great to be able to
hear the guitar part. As I can tell, it sounds pretty close and works well even if it's
not 100%. The riff between the bridge and the chorus (the last section tabbed) is to the 
same rhythm as the main riff to Planetshakers "This Love" if that helps :)

Hope you enjoy, it's a pretty fun song to play in comparison to most Christian rock!

Email me with any corrections, questions, or comments :)


makutoid_@hotmail.com

************************************

| /   slide up
| \   slide down
| h   hammer-on
| p   pull-off
| ~   vibrato
| +   harmonic
| x   Mute note
| b   Bend
| pb  Pre-bend
| br  Bend release
| pbr Pre-bend release
| brb Bend release bend

************************************
Suggest correction
Give kudos to tab author, rate the tab!
1 2 3 4 5
comments
print report bad tab
guest
You may want to rate the tab now too:
select rating
Wanna post a correction for this tab? Suggest correction