Oops, an error
Loading. Please wait.

Climbin The Walls tab

82 views 12 this week
no commentswrite comment
1 2 3 4 5
2 more votes to show rating
add to favorites
×
Save as Personal and add changes to this tab that will be seen only by you. Learn more ›
×
You can save this tab as Personal to edit and correct it or add notes. All changes will be seen only by you. Learn more »
launch autoscroll
font size
0
reset
how to read this tab
guitar tuner
edit
Autoscroll
slow
fast
+/-
esc
set tempo
stop
About this tab version
The chorus may be slightly off, as it was difficult to tell the actual chords being played. The parts during the solo are left out, but everything else should be there. Was this info helpful? Yes No
     Guitar 1
D#|-----------------------------------------|-----------------------------------------| x2
A#|-----------------------------------------|-----------------------------------------|
F#|-----------------------------------------|-----------------------------------------|
C#|-----------------------------------------|-----------------------------------------|
G#|-7p0--7p0--8p0--8p0--5p0--5p0--7p0--7p0--|-3p0--3p0--5p0--5p0--7p0--7p0--7p0--7p0--|
D#|-----------------------------------------|-----------------------------------------|
     Guitar 2
D#|-----------------------------------------|-----------------------------------------| x2
A#|-----------------------------------------|-----------------------------------------|
F#|-----------------------------------------|-----------------------------------------|
C#|-----------------------------------------|-----------------------------------------|
G#|-15p0-15p0-17p0-17p0-14p0-14p0-15p0-15p0-|-12p0-12p0-14p0-14p0-12p0-12p0-11p0-11p0-|
D#|-----------------------------------------|-----------------------------------------|

     Guitar 1
D#|------------------------|------------------------|-------------------------|-----------------------------|
A#|------------------------|------------------------|-------------------------|-----------------------------|
F#|-2----------------------|------------------------|-------------------------|-----------------------------|
C#|-2-7p0---5p0---4p0----3-|--7p0---5p0---4p0----3-5|---7p0---5p0---4p0---3ph-|--7p0---5p0---4p0---3ph^(1/2)|
G#|-0----0pm---0pm---0pm-3-|-0---0pm---0pm---0pm-3-5|-0----0pm---0pm---0pm----|-0---0pm---0pm---0pm------5ph|
D#|------------------------|------------------------|-------------------------|-----------------------------|
     Guitar 2
D#|------------------------|------------------------|-------------------------|-----------------------------|
A#|------------------------|------------------------|-------------------------|-----------------------------|
F#|------------------------|------------------------|-2-----------------------|-----------------------------|
C#|------------------------|---------------------3-5|-2-----------------------|-----------------------------|
G#|------------------------|---------------------3-5|-0-----------------------|-----------------------------|
D#|------------------------|---------------------1-3|-------------------------|-----------------------------|

     Guitar 1 
D#|------------------------|------------------------| x2 
A#|------------------------|------------------------| 
F#|------------------------|------------------------|
C#|---7p0---5p0---4p0----3-|--7p0---5p0---4p0----3-5|
G#|-0----0pm---0pm---0pm-3-|-0---0pm---0pm---0pm-3-5|
D#|------------------------|------------------------|
     Guitar 2 
D#|------------------------|------------------------| x2
A#|------------------------|------------------------| 
F#|-2----------------------|-(2)--------------------|
C#|-2----------------------|-(2)--------------------|
G#|-0----------------------|-(0)--------------------|
D#|------------------------|------------------------|
(let ring out)

     Both Guitars
D#|--------------|--------------|--------------|------------------------------|
A#|--------------|--------------|--------------|------------------------------|
F#|--------------|--------------|--------------|------------------------------|
C#|-2-5-5pm------|-----------5--|-5-7-7pm------|-----------5-------5----------|
G#|-0-3-3pm-5-7--|-7-7-7pm-5-3--|-3-5-5pm-5-7--|-7-7-0pm0pm3-0pm0pm3-0pm0pm5pm|
D#|---------3-5--|-5-5-5pm-3----|---------3-5--|-5-5-----------------------3pm|
lyrics: "I know, you know..."
D#|--------------|--------------|--------------|------------------------------|
A#|--------------|--------------|--------------|------------------------------|
F#|--------------|--------------|--------------|------------------------------|
C#|-2-5-5pm------|-----------5--|-5-7-7pm------|-------------------5----------|
G#|-0-3-3pm-5-7--|-7-7-7pm-5-3--|-3-5-5pm-5-7--|-7-7-0pm0pm5-0pm0pm3-0pm0pm5pm|
D#|---------3-5--|-5-5-5pm-3----|---------3-5--|-5-5-------3---------------3pm|
lyrics: "Wheels are spinnin', the lawyers are grinnin'..."

     Guitar 1 
D#|------------------------|------------------------| x2 
A#|------------------------|------------------------| 
F#|------------------------|------------------------|
C#|---7p0---5p0---4p0----3-|--7p0---5p0---4p0----3-5|
G#|-0----0pm---0pm---0pm-3-|-0---0pm---0pm---0pm-3-5|
D#|------------------------|------------------------|
     Guitar 2 
D#|------------------------|------------------------| x2
A#|------------------------|------------------------| 
F#|-2----------------------|-(2)--------------------|
C#|-2----------------------|-(2)--------------------|
G#|-0----------------------|-(0)--------------------|
D#|------------------------|------------------------|
(let ring out)

     Both Guitars
D#|--------------|--------------|--------------|------------------------------|
A#|--------------|--------------|--------------|------------------------------|
F#|--------------|--------------|--------------|------------------------------|
C#|-2-5-5pm------|-----------5--|-5-7-7pm------|-----------5-------5----------|
G#|-0-3-3pm-5-7--|-7-7-7pm-5-3--|-3-5-5pm-5-7--|-7-7-0pm0pm3-0pm0pm3-0pm0pm5pm|
D#|---------3-5--|-5-5-5pm-3----|---------3-5--|-5-5-----------------------3pm|
lyrics: "Club owners say..."
D#|--------------|--------------|--------------|------------------------------|
A#|--------------|--------------|--------------|------------------------------|
F#|--------------|--------------|--------------|------------------------------|
C#|-2-5-5pm------|-----------5--|-5-7-7pm------|-------------------5----------|
G#|-0-3-3pm-5-7--|-7-7-7pm-5-3--|-3-5-5pm-5-7--|-7-7-0pm0pm5-0pm0pm3-0pm0pm5pm|
D#|---------3-5--|-5-5-5pm-3----|---------3-5--|-5-5-------3---------------3pm|
lyrics: "No vacancy, no vacancy..."

     Guitar 1 
D#|------------------------|------------------------| x4
A#|------------------------|------------------------| 
F#|------------------------|------------------------|
C#|---7p0---5p0---4p0----3-|--7p0---5p0---4p0----3-5|
G#|-0----0pm---0pm---0pm-3-|-0---0pm---0pm---0pm-3-5|
D#|------------------------|------------------------| 
     Guitar 2 
D#|------------------------|------------------------| x4
A#|------------------------|------------------------| 
F#|-2----------------------|-(2)--------------------|
C#|-2----------------------|-(2)--------------------|
G#|-0----------------------|-(0)--------------------|
D#|------------------------|------------------------|
(let ring out)
Lyrics: "Well I'm (Climbin' the walls)..." 

     Guitar 1
D#|-----------------------------------------|-----------------------------------------| 
A#|-----------------------------------------|-----------------------------------------|
F#|-----------------------------------------|-----------------------------------------|
C#|-----------------------------------------|-----------------------------------------|
G#|-7p0--7p0--8p0--8p0--5p0--5p0--7p0--7p0--|-3p0--3p0--5p0--5p0--7p0--7p0--7p0--7p0--|
D#|-----------------------------------------|-----------------------------------------|
     Guitar 2
D#|-----------------------------------------|-----------------------------------------|
A#|-----------------------------------------|-----------------------------------------|
F#|-----------------------------------------|-----------------------------------------|
C#|-----------------------------------------|-----------------------------------------|
G#|-15p0-15p0-17p0-17p0-14p0-14p0-15p0-15p0-|-12p0-12p0-14p0-14p0-12p0-12p0-11p0-11p0-|
D#|-----------------------------------------|-----------------------------------------|

[Solo]

     Guitar 1
D#|-----------------------------------------|-----------------------------------------| x2
A#|-----------------------------------------|-----------------------------------------|
F#|-----------------------------------------|-----------------------------------------|
C#|-----------------------------------------|-----------------------------------------|
G#|-7p0--7p0--8p0--8p0--5p0--5p0--7p0--7p0--|-3p0--3p0--5p0--5p0--7p0--7p0--7p0--7p0--|
D#|-----------------------------------------|-----------------------------------------|
     Guitar 2
D#|-----------------------------------------|-----------------------------------------| x2
A#|-----------------------------------------|-----------------------------------------|
F#|-----------------------------------------|-----------------------------------------|
C#|-----------------------------------------|-----------------------------------------|
G#|-15p0-15p0-17p0-17p0-14p0-14p0-15p0-15p0-|-12p0-12p0-14p0-14p0-12p0-12p0-11p0-11p0-|
D#|-----------------------------------------|-----------------------------------------|

[2nd solo]

     Both Guitars
D#|--------------|--------------|--------------|------------------------------|
A#|--------------|--------------|--------------|------------------------------|
F#|--------------|--------------|--------------|------------------------------|
C#|-2-5-5pm------|-----------5--|-5-7-7pm------|-----------5-------5----------|
G#|-0-3-3pm-5-7--|-7-7-7pm-5-3--|-3-5-5pm-5-7--|-7-7-0pm0pm3-0pm0pm3-0pm0pm5pm|
D#|---------3-5--|-5-5-5pm-3----|---------3-5--|-5-5-----------------------3pm|
lyrics: "...got no money..."
D#|--------------|--------------|--------------|------------------------------|
A#|--------------|--------------|--------------|------------------------------|
F#|--------------|--------------|--------------|------------------------------|
C#|-2-5-5pm------|-----------5--|-5-7-7pm------|-------------------5----------|
G#|-0-3-3pm-5-7--|-7-7-7pm-5-3--|-3-5-5pm-5-7--|-7-7-0pm0pm5-0pm0pm3-0pm0pm5pm|
D#|---------3-5--|-5-5-5pm-3----|---------3-5--|-5-5-------3---------------3pm|
lyrics: "People say you got to pay..."

     Guitar 1 
D#|------------------------|------------------------| x4
A#|------------------------|------------------------| 
F#|------------------------|------------------------|
C#|---7p0---5p0---4p0----3-|--7p0---5p0---4p0----3-5|
G#|-0----0pm---0pm---0pm-3-|-0---0pm---0pm---0pm-3-5|
D#|------------------------|------------------------| 
     Guitar 2 
D#|------------------------|------------------------| x4
A#|------------------------|------------------------| 
F#|-2----------------------|-(2)--------------------|
C#|-2----------------------|-(2)--------------------|
G#|-0----------------------|-(0)--------------------|
D#|------------------------|------------------------|
(let ring out)
Lyrics: "'Cause I'm (Climbin' the walls)..."

      Guitar 1
D#|-----------------------------------------|-----------------------------------------| x2
A#|-----------------------------------------|-----------------------------------------|
F#|-----------------------------------------|-----------------------------------------|
C#|-----------------------------------------|-----------------------------------------|
G#|-7p0--7p0--8p0--8p0--5p0--5p0--7p0--7p0--|-3p0--3p0--5p0--5p0--7p0--7p0--7p0--7p0--|
D#|-----------------------------------------|-----------------------------------------|
     Guitar 2
D#|-----------------------------------------|-----------------------------------------| x2
A#|-----------------------------------------|-----------------------------------------|
F#|-----------------------------------------|-----------------------------------------|
C#|-----------------------------------------|-----------------------------------------|
G#|-15p0-15p0-17p0-17p0-14p0-14p0-15p0-15p0-|-12p0-12p0-14p0-14p0-12p0-12p0-11p0-11p0-|
D#|-----------------------------------------|-----------------------------------------|

D#|-----------------------------|------------------------------|----------------------------|------|
A#|-----------------------------|------------------------------|----------------------------|------|
F#|-----------------------------|------------------------------|----------------------------|------|
C#|-----------------------------|------------------------------|----------------------------|2-----|
G#|-------------0pm-2p0pm-------|------------0pm-2p0pm---------|------------0pm-2p0pm-------|2-----|
D#|-0pm-2pm-4pm---------4pm-2pm-|0pm-2pm-4pm-----------4pm-2pm-|0pm-2pm-4pm---------4pm-2pm-|0-----|


************************************

| p        Pull-off
| ^(1/2)   Bend half-step
| pm       Palm mute
| ph       Pinch harmonic

************************************

            
            
Suggest correction
Creating personal tab
Creating personal tab
You can edit any tab online and save it as your Personal.

You can edit, replace or remove any tab part or add personal notes – all changes will be seen only by you.

Personal tabs can be accessed anytime from any device, even offline.
Learn more »
Give kudos to tab author, rate the tab!
1 2 3 4 5
comments
print report bad tab
guest
You may want to rate the tab now too:
select rating
Wanna post a correction for this tab? Suggest correction