Oops, an error
Loading. Please wait.

Drunk Or Stoned Bass Tab

239 views 1 this week
no commentswrite comment
1 2 3 4 5
3 more votes to show rating
add to favorites
launch autoscroll
font size
0
reset
guitar tuner
Autoscroll
slow
fast
+/-
esc
set tempo
stop
Help us to improve Ultimate-Guitar.com Take our survey!
×
Author
ARTIST:WRAY GUNN
MUSIC:DRUNK OR STONED

Riff 1
E-----------3-|
A------5-3----|
D-5-5---------|
G-------------|

Riff 2
E-----------3-6-6-6-|
A------5-3----------|
D-5-5---------------|
G-------------------|

Riff 3
E-8-8-8-8-8-8-6-6-6-6-6-6-|
A-------------------------|
D-------------------------|
G-------------------------|

Riff 4
E-8-8-8-8-8-8-6-6-6-6-6-6-3-|
A---------------------------|
D---------------------------|
G---------------------------|

Riff 5
E-8-8-8-8-8-8-6-6-6-6-6-6-8-8-8-8-8-8-3-|
A---------------------------------------|
D---------------------------------------|
G---------------------------------------|

Riff 6
E-----------|
A-5-5-5-5-5-|
D-----------|
G-----------|

Riff 7
E-3-3-3-6-6-|
A-----------|
D-----------|
G-----------|

Riff 1  1X (00:04)
Riff 2 16X (00:08)
Riff 3  1X (01:00)
Riff 4  1X (01:08)
Riff 2 14X (01:13)
Riff 5  1X (02:05)
Riff 6  1X (02:18)
Riff 7  9X (02:21)
Riff 2  8X (02:54)

www.wraygunn.com
Suggest correction
Give kudos to tab author, rate the tab!
1 2 3 4 5
comments
print report bad tab
guest
You may want to rate the tab now too:
select rating
Wanna post a correction for this tab? Suggest correction